  0
SECTION
  2
HEADER
  9
$ACADVER
  1
AC1015
  9
$ACADMAINTVER
 70
     6
  9
$DWGCODEPAGE
  3
ANSI_1252
  9
$INSBASE
 10
0.0
 20
0.0
 30
0.0
  9
$EXTMIN
 10
-234.2
 20
0.0
 30
0.0
  9
$EXTMAX
 10
234.2
 20
400.0
 30
0.0
  9
$LIMMIN
 10
0.0
 20
0.0
  9
$LIMMAX
 10
420.0
 20
297.0
  9
$ORTHOMODE
 70
     0
  9
$REGENMODE
 70
     1
  9
$FILLMODE
 70
     1
  9
$QTEXTMODE
 70
     0
  9
$MIRRTEXT
 70
     1
  9
$LTSCALE
 40
1.0
  9
$ATTMODE
 70
     1
  9
$TEXTSIZE
 40
3.5
  9
$TRACEWID
 40
1.0
  9
$TEXTSTYLE
  7
Standard
  9
$CLAYER
  8
0
  9
$CELTYPE
  6
ByLayer
  9
$CECOLOR
 62
   256
  9
$CELTSCALE
 40
1.0
  9
$DISPSILH
 70
     0
  9
$DIMSCALE
 40
1.0
  9
$DIMASZ
 40
3.302
  9
$DIMEXO
 40
1.0
  9
$DIMDLI
 40
3.75
  9
$DIMRND
 40
0.0
  9
$DIMDLE
 40
0.0
  9
$DIMEXE
 40
1.0
  9
$DIMTP
 40
0.0
  9
$DIMTM
 40
0.0
  9
$DIMTXT
 40
3.5
  9
$DIMCEN
 40
2.5
  9
$DIMTSZ
 40
0.0
  9
$DIMTOL
 70
     0
  9
$DIMLIM
 70
     0
  9
$DIMTIH
 70
     1
  9
$DIMTOH
 70
     1
  9
$DIMSE1
 70
     0
  9
$DIMSE2
 70
     0
  9
$DIMTAD
 70
     1
  9
$DIMZIN
 70
     1
  9
$DIMBLK
  1

  9
$DIMASO
 70
     1
  9
$DIMSHO
 70
     1
  9
$DIMPOST
  1

  9
$DIMAPOST
  1

  9
$DIMALT
 70
     0
  9
$DIMALTD
 70
     3
  9
$DIMALTF
 40
0.0393700787
  9
$DIMLFAC
 40
1.0
  9
$DIMTOFL
 70
     1
  9
$DIMTVP
 40
0.0
  9
$DIMTIX
 70
     0
  9
$DIMSOXD
 70
     0
  9
$DIMSAH
 70
     0
  9
$DIMBLK1
  1

  9
$DIMBLK2
  1

  9
$DIMSTYLE
  2
ISO-25
  9
$DIMCLRD
 70
     0
  9
$DIMCLRE
 70
     0
  9
$DIMCLRT
 70
     0
  9
$DIMTFAC
 40
1.0
  9
$DIMGAP
 40
1.524
  9
$DIMJUST
 70
     0
  9
$DIMSD1
 70
     0
  9
$DIMSD2
 70
     0
  9
$DIMTOLJ
 70
     0
  9
$DIMTZIN
 70
     1
  9
$DIMALTZ
 70
     0
  9
$DIMALTTZ
 70
     0
  9
$DIMUPT
 70
     0
  9
$DIMDEC
 70
     2
  9
$DIMTDEC
 70
     2
  9
$DIMALTU
 70
     2
  9
$DIMALTTD
 70
     3
  9
$DIMTXSTY
  7
Standard
  9
$DIMAUNIT
 70
     0
  9
$DIMADEC
 70
     2
  9
$DIMALTRND
 40
0.0
  9
$DIMAZIN
 70
     0
  9
$DIMDSEP
 70
    44
  9
$DIMATFIT
 70
     3
  9
$DIMFRAC
 70
     0
  9
$DIMLDRBLK
  1

  9
$DIMLUNIT
 70
     2
  9
$DIMLWD
 70
    -2
  9
$DIMLWE
 70
    -2
  9
$DIMTMOVE
 70
     0
  9
$LUNITS
 70
     2
  9
$LUPREC
 70
     2
  9
$SKETCHINC
 40
1.0
  9
$FILLETRAD
 40
10.0
  9
$AUNITS
 70
     0
  9
$AUPREC
 70
     2
  9
$MENU
  1
.
  9
$ELEVATION
 40
0.0
  9
$PELEVATION
 40
0.0
  9
$THICKNESS
 40
0.0
  9
$LIMCHECK
 70
     0
  9
$CHAMFERA
 40
0.0
  9
$CHAMFERB
 40
0.0
  9
$CHAMFERC
 40
0.0
  9
$CHAMFERD
 40
0.0
  9
$SKPOLY
 70
     0
  9
$TDCREATE
 40
2459257.498436261
  9
$TDUCREATE
 40
2459257.498436261
  9
$TDUPDATE
 40
2459257.498455752
  9
$TDUUPDATE
 40
2459257.498455752
  9
$TDINDWG
 40
0.0000000116
  9
$TDUSRTIMER
 40
0.0000000116
  9
$USRTIMER
 70
     1
  9
$ANGBASE
 50
0.0
  9
$ANGDIR
 70
     0
  9
$PDMODE
 70
     0
  9
$PDSIZE
 40
-1.0
  9
$PLINEWID
 40
0.0
  9
$SPLFRAME
 70
     0
  9
$SPLINETYPE
 70
     6
  9
$SPLINESEGS
 70
     8
  9
$HANDSEED
  5
3E1
  9
$SURFTAB1
 70
     6
  9
$SURFTAB2
 70
     6
  9
$SURFTYPE
 70
     6
  9
$SURFU
 70
     6
  9
$SURFV
 70
     6
  9
$UCSBASE
  2

  9
$UCSNAME
  2

  9
$UCSORG
 10
0.0
 20
0.0
 30
0.0
  9
$UCSXDIR
 10
1.0
 20
0.0
 30
0.0
  9
$UCSYDIR
 10
0.0
 20
1.0
 30
0.0
  9
$UCSORTHOREF
  2

  9
$UCSORTHOVIEW
 70
     0
  9
$UCSORGTOP
 10
0.0
 20
0.0
 30
0.0
  9
$UCSORGBOTTOM
 10
0.0
 20
0.0
 30
0.0
  9
$UCSORGLEFT
 10
0.0
 20
0.0
 30
0.0
  9
$UCSORGRIGHT
 10
0.0
 20
0.0
 30
0.0
  9
$UCSORGFRONT
 10
0.0
 20
0.0
 30
0.0
  9
$UCSORGBACK
 10
0.0
 20
0.0
 30
0.0
  9
$PUCSBASE
  2

  9
$PUCSNAME
  2

  9
$PUCSORG
 10
0.0
 20
0.0
 30
0.0
  9
$PUCSXDIR
 10
1.0
 20
0.0
 30
0.0
  9
$PUCSYDIR
 10
0.0
 20
1.0
 30
0.0
  9
$PUCSORTHOREF
  2

  9
$PUCSORTHOVIEW
 70
     0
  9
$PUCSORGTOP
 10
0.0
 20
0.0
 30
0.0
  9
$PUCSORGBOTTOM
 10
0.0
 20
0.0
 30
0.0
  9
$PUCSORGLEFT
 10
0.0
 20
0.0
 30
0.0
  9
$PUCSORGRIGHT
 10
0.0
 20
0.0
 30
0.0
  9
$PUCSORGFRONT
 10
0.0
 20
0.0
 30
0.0
  9
$PUCSORGBACK
 10
0.0
 20
0.0
 30
0.0
  9
$USERI1
 70
     0
  9
$USERI2
 70
     0
  9
$USERI3
 70
     0
  9
$USERI4
 70
     0
  9
$USERI5
 70
     0
  9
$USERR1
 40
0.0
  9
$USERR2
 40
0.0
  9
$USERR3
 40
0.0
  9
$USERR4
 40
0.0
  9
$USERR5
 40
0.0
  9
$WORLDVIEW
 70
     1
  9
$SHADEDGE
 70
     3
  9
$SHADEDIF
 70
    70
  9
$TILEMODE
 70
     1
  9
$MAXACTVP
 70
    64
  9
$PINSBASE
 10
0.0
 20
0.0
 30
0.0
  9
$PLIMCHECK
 70
     0
  9
$PEXTMIN
 10
-234.2
 20
0.0
 30
0.0
  9
$PEXTMAX
 10
234.2
 20
400.0
 30
0.0
  9
$PLIMMIN
 10
-275.2256410256
 20
-15.3846153846
  9
$PLIMMAX
 10
334.0051282051
 20
415.3846153846
  9
$UNITMODE
 70
     0
  9
$VISRETAIN
 70
     1
  9
$PLINEGEN
 70
     0
  9
$PSLTSCALE
 70
     1
  9
$TREEDEPTH
 70
  3020
  9
$CMLSTYLE
  2
Standard
  9
$CMLJUST
 70
     0
  9
$CMLSCALE
 40
20.0
  9
$PROXYGRAPHICS
 70
     1
  9
$MEASUREMENT
 70
     1
  9
$CELWEIGHT
370
    -1
  9
$ENDCAPS
280
     0
  9
$JOINSTYLE
280
     0
  9
$LWDISPLAY
290
     1
  9
$INSUNITS
 70
     4
  9
$HYPERLINKBASE
  1

  9
$STYLESHEET
  1

  9
$XEDIT
290
     1
  9
$CEPSNTYPE
380
     0
  9
$PSTYLEMODE
290
     1
  9
$FINGERPRINTGUID
  2
{a6c05ee9-6530-4f74-b9e0-16c26bf66a82}
  9
$VERSIONGUID
  2
{FAEB1C32-E019-11D5-929B-00C0DF256EC4}
  9
$EXTNAMES
290
     1
  9
$PSVPSCALE
 40
0.0
  9
$OLESTARTUP
290
     0
  0
ENDSEC
  0
SECTION
  2
CLASSES
  0
CLASS
  1
ACDBDICTIONARYWDFLT
  2
AcDbDictionaryWithDefault
  3
ObjectDBX Classes
 90
        0
280
     0
281
     0
  0
CLASS
  1
VISUALSTYLE
  2
AcDbVisualStyle
  3
ObjectDBX Classes
 90
     4095
280
     0
281
     0
  0
CLASS
  1
MATERIAL
  2
AcDbMaterial
  3
ObjectDBX Classes
 90
     1153
280
     0
281
     0
  0
CLASS
  1
SCALE
  2
AcDbScale
  3
ObjectDBX Classes
 90
     1153
280
     0
281
     0
  0
CLASS
  1
TABLESTYLE
  2
AcDbTableStyle
  3
ObjectDBX Classes
 90
     4095
280
     0
281
     0
  0
CLASS
  1
MLEADERSTYLE
  2
AcDbMLeaderStyle
  3
ACDB_MLEADERSTYLE_CLASS
 90
     4095
280
     0
281
     0
  0
CLASS
  1
SUN
  2
AcDbSun
  3
SCENEOE
 90
     1153
280
     0
281
     0
  0
CLASS
  1
ACDBPLACEHOLDER
  2
AcDbPlaceHolder
  3
ObjectDBX Classes
 90
        0
280
     0
281
     0
  0
CLASS
  1
LAYOUT
  2
AcDbLayout
  3
ObjectDBX Classes
 90
        0
280
     0
281
     0
  0
ENDSEC
  0
SECTION
  2
TABLES
  0
TABLE
  2
VPORT
  5
8
330
0
100
AcDbSymbolTable
 70
     1
  0
VPORT
  5
29
330
8
100
AcDbSymbolTableRecord
100
AcDbViewportTableRecord
  2
*Active
 70
     0
 10
0.0
 20
0.0
 11
1.0
 21
1.0
 12
0.0
 22
200.0
 13
0.0
 23
0.0
 14
10.0
 24
10.0
 15
10.0
 25
10.0
 16
0.0
 26
0.0
 36
1.0
 17
0.0
 27
0.0
 37
0.0
 40
408.0
 41
1.171
 42
50.0
 43
0.0
 44
0.0
 50
0.0
 51
0.0
 71
     0
 72
   100
 73
     1
 74
     3
 75
     0
 76
     0
 77
     0
 78
     0
281
     0
 65
     1
110
0.0
120
0.0
130
0.0
111
1.0
121
0.0
131
0.0
112
0.0
122
1.0
132
0.0
 79
     0
146
0.0
  0
ENDTAB
  0
TABLE
  2
LTYPE
  5
5
330
0
100
AcDbSymbolTable
 70
     6
  0
LTYPE
  5
14
330
5
100
AcDbSymbolTableRecord
100
AcDbLinetypeTableRecord
  2
ByBlock
 70
     0
  3

 72
    65
 73
     0
 40
0.0
  0
LTYPE
  5
15
330
5
100
AcDbSymbolTableRecord
100
AcDbLinetypeTableRecord
  2
ByLayer
 70
     0
  3

 72
    65
 73
     0
 40
0.0
  0
LTYPE
  5
16
330
5
100
AcDbSymbolTableRecord
100
AcDbLinetypeTableRecord
  2
Continuous
 70
     0
  3
Solid line
 72
    65
 73
     0
 40
0.0
  0
LTYPE
  5
6E
330
5
100
AcDbSymbolTableRecord
100
AcDbLinetypeTableRecord
  2
HIDDEN
 70
     0
  3
Hidden __ __ __ __ __ __ __ __ __ __ __ __ __ __
 72
    65
 73
     2
 40
1.905
 49
1.27
 74
     0
 49
-0.635
 74
     0
  0
LTYPE
  5
6F
330
5
100
AcDbSymbolTableRecord
100
AcDbLinetypeTableRecord
  2
PHANTOM
 70
     0
  3
Phantom ______  __  __  ______  __  __  ______
 72
    65
 73
     6
 40
12.7
 49
6.35
 74
     0
 49
-1.27
 74
     0
 49
1.27
 74
     0
 49
-1.27
 74
     0
 49
1.27
 74
     0
 49
-1.27
 74
     0
  0
LTYPE
  5
70
330
5
100
AcDbSymbolTableRecord
100
AcDbLinetypeTableRecord
  2
CENTER
 70
     0
  3
Center ____ _ ____ _ ____ _ ____ _ ____ _ ____
 72
    65
 73
     4
 40
10.16
 49
6.35
 74
     0
 49
-1.27
 74
     0
 49
1.27
 74
     0
 49
-1.27
 74
     0
  0
LTYPE
  5
71
330
5
100
AcDbSymbolTableRecord
100
AcDbLinetypeTableRecord
  2
CENTERX2
 70
     0
  3
Center (2x) ________  __  ________  __  _____
 72
    65
 73
     4
 40
20.32
 49
12.7
 74
     0
 49
-2.54
 74
     0
 49
2.54
 74
     0
 49
-2.54
 74
     0
  0
LTYPE
  5
72
330
5
100
AcDbSymbolTableRecord
100
AcDbLinetypeTableRecord
  2
DOT2
 70
     0
  3
Dot (.5x) ........................................
 72
    65
 73
     2
 40
0.635
 49
0.0
 74
     0
 49
-0.635
 74
     0
  0
ENDTAB
  0
TABLE
  2
LAYER
  5
2
330
0
100
AcDbSymbolTable
 70
     1
  0
LAYER
  5
10
330
2
100
AcDbSymbolTableRecord
100
AcDbLayerTableRecord
  2
0
 70
     0
 62
     7
  6
Continuous
370
    -3
390
F
  0
ENDTAB
  0
TABLE
  2
STYLE
  5
3
330
0
100
AcDbSymbolTable
 70
     1
  0
STYLE
  5
11
330
3
100
AcDbSymbolTableRecord
100
AcDbTextStyleTableRecord
  2
Standard
 70
     0
 40
0.0
 41
1.0
 50
0.0
 71
     0
 42
3.5
  3
txt
  4

  0
ENDTAB
  0
TABLE
  2
VIEW
  5
6
330
0
100
AcDbSymbolTable
 70
     0
  0
ENDTAB
  0
TABLE
  2
UCS
  5
7
330
0
100
AcDbSymbolTable
 70
     0
  0
ENDTAB
  0
TABLE
  2
APPID
  5
9
330
0
100
AcDbSymbolTable
 70
     1
  0
APPID
  5
12
330
9
100
AcDbSymbolTableRecord
100
AcDbRegAppTableRecord
  2
ACAD
 70
     0
  0
ENDTAB
  0
TABLE
  2
DIMSTYLE
  5
A
330
0
100
AcDbSymbolTable
 70
     1
100
AcDbDimStyleTable
  0
DIMSTYLE
105
27
330
A
100
AcDbSymbolTableRecord
100
AcDbDimStyleTableRecord
  2
ISO-25
 70
     0
 41
2.5
 42
0.625
 43
3.75
 44
1.25
 73
     0
 74
     0
 77
     1
 78
     8
140
2.5
141
2.5
143
0.0393700787
147
0.625
171
     3
172
     1
178
     0
271
     2
272
     2
274
     3
278
    44
283
     0
284
     8
340
11
  0
ENDTAB
  0
TABLE
  2
BLOCK_RECORD
  5
1
330
0
100
AcDbSymbolTable
 70
     3
  0
BLOCK_RECORD
  5
1F
330
1
100
AcDbSymbolTableRecord
100
AcDbBlockTableRecord
  2
*Model_Space
340
22
  0
BLOCK_RECORD
  5
1B
330
1
100
AcDbSymbolTableRecord
100
AcDbBlockTableRecord
  2
*Paper_Space
340
1E
  0
BLOCK_RECORD
  5
23
330
1
100
AcDbSymbolTableRecord
100
AcDbBlockTableRecord
  2
*Paper_Space0
340
26
  0
BLOCK_RECORD
  5
18C
330
1
100
AcDbSymbolTableRecord
100
AcDbBlockTableRecord
  2
*Paper_Space1
340
18D
  0
BLOCK_RECORD
  5
277
330
1
100
AcDbSymbolTableRecord
100
AcDbBlockTableRecord
  2
*Paper_Space2
340
278
  0
ENDTAB
  0
ENDSEC
  0
SECTION
  2
BLOCKS
  0
BLOCK
  5
20
330
1F
100
AcDbEntity
  8
0
100
AcDbBlockBegin
  2
*Model_Space
 70
     0
 10
0.0
 20
0.0
 30
0.0
  3
*Model_Space
  1

  0
ENDBLK
  5
21
330
1F
100
AcDbEntity
  8
0
100
AcDbBlockEnd
  0
BLOCK
  5
1C
330
1B
100
AcDbEntity
 67
     1
  8
0
100
AcDbBlockBegin
  2
*Paper_Space
 70
     0
 10
0.0
 20
0.0
 30
0.0
  3
*Paper_Space
  1

  0
ENDBLK
  5
1D
330
1B
100
AcDbEntity
 67
     1
  8
0
100
AcDbBlockEnd
  0
BLOCK
  5
24
330
23
100
AcDbEntity
  8
0
100
AcDbBlockBegin
  2
*Paper_Space0
 70
     0
 10
0.0
 20
0.0
 30
0.0
  3
*Paper_Space0
  1

  0
LINE
  5
181
330
23
100
AcDbEntity
  8
0
  6
Continuous
 62
     7
370
    25
100
AcDbLine
 10
161.0
 20
400.0
 30
0.0
 11
161.0
 21
0.0
 31
0.0
  0
LINE
  5
182
330
23
100
AcDbEntity
  8
0
  6
Continuous
 62
     7
370
    25
100
AcDbLine
 10
179.2
 20
0.0
 30
0.0
 11
-201.0
 21
0.0
 31
0.0
  0
LINE
  5
183
330
23
100
AcDbEntity
  8
0
  6
Continuous
 62
     7
370
    25
100
AcDbLine
 10
-201.0
 20
400.0
 30
0.0
 11
161.0
 21
400.0
 31
0.0
  0
LINE
  5
184
330
23
100
AcDbEntity
  8
0
  6
Continuous
 62
     7
370
    25
100
AcDbLine
 10
-201.0
 20
0.0
 30
0.0
 11
-201.0
 21
400.0
 31
0.0
  0
LINE
  5
185
330
23
100
AcDbEntity
  8
0
  6
Continuous
 62
     7
370
    25
100
AcDbLine
 10
169.5
 20
317.9
 30
0.0
 11
169.5
 21
394.5
 31
0.0
  0
LINE
  5
186
330
23
100
AcDbEntity
  8
0
  6
Continuous
 62
     7
370
    25
100
AcDbLine
 10
161.0
 20
394.5
 30
0.0
 11
179.5
 21
394.5
 31
0.0
  0
LINE
  5
187
330
23
100
AcDbEntity
  8
0
  6
Continuous
 62
     7
370
    25
100
AcDbLine
 10
179.5
 20
394.5
 30
0.0
 11
179.5
 21
317.9
 31
0.0
  0
LINE
  5
188
330
23
100
AcDbEntity
  8
0
  6
Continuous
 62
     7
370
    25
100
AcDbLine
 10
179.5
 20
317.9
 30
0.0
 11
161.0
 21
317.9
 31
0.0
  0
LINE
  5
189
330
23
100
AcDbEntity
  8
0
  6
Continuous
 62
     7
370
    25
100
AcDbLine
 10
169.2
 20
0.0
 30
0.0
 11
169.2
 21
305.0
 31
0.0
  0
LINE
  5
18A
330
23
100
AcDbEntity
  8
0
  6
Continuous
 62
     7
370
    25
100
AcDbLine
 10
161.0
 20
305.0
 30
0.0
 11
179.2
 21
305.0
 31
0.0
  0
LINE
  5
18B
330
23
100
AcDbEntity
  8
0
  6
Continuous
 62
     7
370
    25
100
AcDbLine
 10
179.2
 20
305.0
 30
0.0
 11
179.2
 21
0.0
 31
0.0
  0
VIEWPORT
  5
3DB
330
23
100
AcDbEntity
  8
0
100
AcDbViewport
 10
0.0
 20
0.0
 30
0.0
 40
205.6
 41
156.0
 68
     1
 69
     1
 12
0.0
 22
200.0
 13
0.0
 23
0.0
 14
10.0
 24
10.0
 15
10.0
 25
10.0
 16
0.0
 26
0.0
 36
1.0
 17
0.0
 27
0.0
 37
0.0
 42
50.0
 43
0.0
 44
0.0
 45
408.0
 50
0.0
 51
0.0
 72
   100
 90
   557152
  1

281
     0
 71
     1
 74
     0
110
0.0
120
0.0
130
0.0
111
1.0
121
0.0
131
0.0
112
0.0
122
1.0
132
0.0
 79
     0
146
0.0
  0
ENDBLK
  5
25
330
23
100
AcDbEntity
  8
0
100
AcDbBlockEnd
  0
BLOCK
  5
18E
330
18C
100
AcDbEntity
  8
0
100
AcDbBlockBegin
  2
*Paper_Space1
 70
     0
 10
0.0
 20
0.0
 30
0.0
  3
*Paper_Space1
  1

  0
LINE
  5
217
330
18C
100
AcDbEntity
  8
0
  6
Continuous
 62
     7
370
    25
100
AcDbLine
 10
-209.1
 20
163.75
 30
0.0
 11
-191.0
 21
163.75
 31
0.0
  0
LINE
  5
218
330
18C
100
AcDbEntity
  8
0
  6
Continuous
 62
     7
370
    25
100
AcDbLine
 10
-191.0
 20
173.25
 30
0.0
 11
-209.1
 21
173.25
 31
0.0
  0
LINE
  5
219
330
18C
100
AcDbEntity
  8
0
  6
Continuous
 62
     7
370
    25
100
AcDbLine
 10
209.1
 20
173.25
 30
0.0
 11
191.0
 21
173.25
 31
0.0
  0
LINE
  5
21A
330
18C
100
AcDbEntity
  8
0
  6
Continuous
 62
     7
370
    25
100
AcDbLine
 10
191.0
 20
163.75
 30
0.0
 11
209.1
 21
163.75
 31
0.0
  0
LINE
  5
21B
330
18C
100
AcDbEntity
  8
0
  6
Continuous
 62
     7
370
    25
100
AcDbLine
 10
194.2
 20
93.0
 30
0.0
 11
194.2
 21
73.0
 31
0.0
  0
LINE
  5
21C
330
18C
100
AcDbEntity
  8
0
  6
Continuous
 62
     7
370
    25
100
AcDbLine
 10
210.2
 20
73.0
 30
0.0
 11
210.2
 21
93.0
 31
0.0
  0
LINE
  5
21D
330
18C
100
AcDbEntity
  8
0
  6
Continuous
 62
     7
370
    25
100
AcDbLine
 10
197.2
 20
73.0
 30
0.0
 11
197.2
 21
-142.8
 31
0.0
  0
LINE
  5
21E
330
18C
100
AcDbEntity
  8
0
  6
Continuous
 62
     7
370
    25
100
AcDbLine
 10
207.2
 20
73.0
 30
0.0
 11
207.2
 21
-142.8
 31
0.0
  0
LINE
  5
21F
330
18C
100
AcDbEntity
  8
0
  6
Continuous
 62
     7
370
    25
100
AcDbLine
 10
-208.8
 20
93.0
 30
0.0
 11
-208.8
 21
73.0
 31
0.0
  0
LINE
  5
220
330
18C
100
AcDbEntity
  8
0
  6
Continuous
 62
     7
370
    25
100
AcDbLine
 10
-192.8
 20
73.0
 30
0.0
 11
-192.8
 21
93.0
 31
0.0
  0
LINE
  5
221
330
18C
100
AcDbEntity
  8
0
  6
Continuous
 62
     7
370
    25
100
AcDbLine
 10
-205.8
 20
73.0
 30
0.0
 11
-205.8
 21
-142.8
 31
0.0
  0
LINE
  5
222
330
18C
100
AcDbEntity
  8
0
  6
Continuous
 62
     7
370
    25
100
AcDbLine
 10
-195.8
 20
-142.8
 30
0.0
 11
-195.8
 21
73.0
 31
0.0
  0
LINE
  5
223
330
18C
100
AcDbEntity
  8
0
  6
Continuous
 62
     7
370
    25
100
AcDbLine
 10
-163.1
 20
199.1
 30
0.0
 11
-163.1
 21
201.0
 31
0.0
  0
LINE
  5
224
330
18C
100
AcDbEntity
  8
0
  6
Continuous
 62
     7
370
    25
100
AcDbLine
 10
-163.1
 20
199.1
 30
0.0
 11
-209.1
 21
199.1
 31
0.0
  0
LINE
  5
225
330
18C
100
AcDbEntity
  8
0
  6
Continuous
 62
     7
370
    25
100
AcDbLine
 10
-209.1
 20
153.1
 30
0.0
 11
-209.1
 21
199.1
 31
0.0
  0
LINE
  5
226
330
18C
100
AcDbEntity
  8
0
  6
Continuous
 62
     7
370
    25
100
AcDbLine
 10
-211.0
 20
153.1
 30
0.0
 11
-209.1
 21
153.1
 31
0.0
  0
LINE
  5
227
330
18C
100
AcDbEntity
  8
0
  6
Continuous
 62
     7
370
    25
100
AcDbLine
 10
-163.1
 20
201.0
 30
0.0
 11
-211.0
 21
201.0
 31
0.0
  0
LINE
  5
228
330
18C
100
AcDbEntity
  8
0
  6
Continuous
 62
     7
370
    25
100
AcDbLine
 10
-216.0
 20
201.0
 30
0.0
 11
-216.0
 21
-161.0
 31
0.0
  0
LINE
  5
229
330
18C
100
AcDbEntity
  8
0
  6
Continuous
 62
     7
370
    25
100
AcDbLine
 10
-234.2
 20
201.0
 30
0.0
 11
-234.2
 21
-169.5
 31
0.0
  0
LINE
  5
22A
330
18C
100
AcDbEntity
  8
0
  6
Continuous
 62
     7
370
    25
100
AcDbLine
 10
-216.0
 20
201.0
 30
0.0
 11
-234.2
 21
201.0
 31
0.0
  0
LINE
  5
22B
330
18C
100
AcDbEntity
  8
0
  6
Continuous
 62
     7
370
    25
100
AcDbLine
 10
-212.8
 20
153.0
 30
0.0
 11
-211.0
 21
153.0
 31
0.0
  0
LINE
  5
22C
330
18C
100
AcDbEntity
  8
0
  6
Continuous
 62
     7
370
    25
100
AcDbLine
 10
-212.8
 20
184.0
 30
0.0
 11
-211.0
 21
184.0
 31
0.0
  0
LINE
  5
22D
330
18C
100
AcDbEntity
  8
0
  6
Continuous
 62
     7
370
    25
100
AcDbLine
 10
-211.0
 20
201.0
 30
0.0
 11
-211.0
 21
152.0
 31
0.0
  0
LINE
  5
22E
330
18C
100
AcDbEntity
  8
0
  6
Continuous
 62
     7
370
    25
100
AcDbLine
 10
-212.8
 20
152.0
 30
0.0
 11
-212.8
 21
185.0
 31
0.0
  0
LINE
  5
22F
330
18C
100
AcDbEntity
  8
0
  6
Continuous
 62
     7
370
    25
100
AcDbLine
 10
-214.0
 20
186.2
 30
0.0
 11
-216.0
 21
186.2
 31
0.0
  0
LINE
  5
230
330
18C
100
AcDbEntity
  8
0
  6
Continuous
 62
     7
370
    25
100
AcDbLine
 10
-216.0
 20
188.0
 30
0.0
 11
-214.0
 21
188.0
 31
0.0
  0
LINE
  5
231
330
18C
100
AcDbEntity
  8
0
  6
Continuous
 62
     7
370
    25
100
AcDbLine
 10
-216.0
 20
149.0
 30
0.0
 11
-214.0
 21
149.0
 31
0.0
  0
LINE
  5
232
330
18C
100
AcDbEntity
  8
0
  6
Continuous
 62
     7
370
    25
100
AcDbLine
 10
-216.0
 20
150.8
 30
0.0
 11
-214.0
 21
150.8
 31
0.0
  0
LINE
  5
233
330
18C
100
AcDbEntity
  8
0
  6
Continuous
 62
     7
370
    25
100
AcDbLine
 10
-191.0
 20
173.25
 30
0.0
 11
-191.0
 21
163.75
 31
0.0
  0
LINE
  5
234
330
18C
100
AcDbEntity
  8
0
  6
Continuous
 62
     7
370
    25
100
AcDbLine
 10
212.8
 20
184.0
 30
0.0
 11
211.0
 21
184.0
 31
0.0
  0
LINE
  5
235
330
18C
100
AcDbEntity
  8
0
  6
Continuous
 62
     7
370
    25
100
AcDbLine
 10
212.8
 20
152.0
 30
0.0
 11
212.8
 21
185.0
 31
0.0
  0
LINE
  5
236
330
18C
100
AcDbEntity
  8
0
  6
Continuous
 62
     7
370
    25
100
AcDbLine
 10
212.8
 20
153.0
 30
0.0
 11
211.0
 21
153.0
 31
0.0
  0
LINE
  5
237
330
18C
100
AcDbEntity
  8
0
  6
Continuous
 62
     7
370
    25
100
AcDbLine
 10
211.0
 20
201.0
 30
0.0
 11
211.0
 21
152.0
 31
0.0
  0
LINE
  5
238
330
18C
100
AcDbEntity
  8
0
  6
Continuous
 62
     7
370
    25
100
AcDbLine
 10
216.0
 20
149.0
 30
0.0
 11
214.0
 21
149.0
 31
0.0
  0
LINE
  5
239
330
18C
100
AcDbEntity
  8
0
  6
Continuous
 62
     7
370
    25
100
AcDbLine
 10
214.0
 20
150.8
 30
0.0
 11
216.0
 21
150.8
 31
0.0
  0
LINE
  5
23A
330
18C
100
AcDbEntity
  8
0
  6
Continuous
 62
     7
370
    25
100
AcDbLine
 10
216.0
 20
186.2
 30
0.0
 11
214.0
 21
186.2
 31
0.0
  0
LINE
  5
23B
330
18C
100
AcDbEntity
  8
0
  6
Continuous
 62
     7
370
    25
100
AcDbLine
 10
216.0
 20
188.0
 30
0.0
 11
214.0
 21
188.0
 31
0.0
  0
LINE
  5
23C
330
18C
100
AcDbEntity
  8
0
  6
Continuous
 62
     7
370
    25
100
AcDbLine
 10
191.0
 20
163.75
 30
0.0
 11
191.0
 21
173.25
 31
0.0
  0
LINE
  5
23D
330
18C
100
AcDbEntity
  8
0
  6
Continuous
 62
     7
370
    25
100
AcDbLine
 10
216.0
 20
161.0
 30
0.0
 11
212.8
 21
161.0
 31
0.0
  0
LINE
  5
23E
330
18C
100
AcDbEntity
  8
0
  6
Continuous
 62
     7
370
    25
100
AcDbLine
 10
209.1
 20
161.0
 30
0.0
 11
-209.1
 21
161.0
 31
0.0
  0
LINE
  5
23F
330
18C
100
AcDbEntity
  8
0
  6
Continuous
 62
     7
370
    25
100
AcDbLine
 10
-212.8
 20
161.0
 30
0.0
 11
-216.0
 21
161.0
 31
0.0
  0
LINE
  5
240
330
18C
100
AcDbEntity
  8
0
  6
Continuous
 62
     7
370
    25
100
AcDbLine
 10
-234.2
 20
-161.0
 30
0.0
 11
234.2
 21
-161.0
 31
0.0
  0
LINE
  5
241
330
18C
100
AcDbEntity
  8
0
  6
Continuous
 62
     7
370
    25
100
AcDbLine
 10
216.0
 20
201.0
 30
0.0
 11
216.0
 21
-161.0
 31
0.0
  0
LINE
  5
242
330
18C
100
AcDbEntity
  8
0
  6
Continuous
 62
     7
370
    25
100
AcDbLine
 10
234.2
 20
201.0
 30
0.0
 11
234.2
 21
-169.2
 31
0.0
  0
LINE
  5
243
330
18C
100
AcDbEntity
  8
0
  6
Continuous
 62
     7
370
    25
100
AcDbLine
 10
216.0
 20
201.0
 30
0.0
 11
234.2
 21
201.0
 31
0.0
  0
LINE
  5
244
330
18C
100
AcDbEntity
  8
0
  6
Continuous
 62
     7
370
    25
100
AcDbLine
 10
232.8
 20
-161.0
 30
0.0
 11
232.8
 21
-169.5
 31
0.0
  0
LINE
  5
245
330
18C
100
AcDbEntity
  8
0
  6
Continuous
 62
     7
370
    25
100
AcDbLine
 10
-224.2
 20
-179.5
 30
0.0
 11
222.8
 21
-179.5
 31
0.0
  0
LINE
  5
246
330
18C
100
AcDbEntity
  8
0
  6
Continuous
 62
     7
370
    25
100
AcDbLine
 10
209.1
 20
199.1
 30
0.0
 11
163.1
 21
199.1
 31
0.0
  0
LINE
  5
247
330
18C
100
AcDbEntity
  8
0
  6
Continuous
 62
     7
370
    25
100
AcDbLine
 10
163.1
 20
199.1
 30
0.0
 11
163.1
 21
201.0
 31
0.0
  0
LINE
  5
248
330
18C
100
AcDbEntity
  8
0
  6
Continuous
 62
     7
370
    25
100
AcDbLine
 10
211.0
 20
201.0
 30
0.0
 11
163.1
 21
201.0
 31
0.0
  0
LINE
  5
249
330
18C
100
AcDbEntity
  8
0
  6
Continuous
 62
     7
370
    25
100
AcDbLine
 10
209.1
 20
153.1
 30
0.0
 11
209.1
 21
199.1
 31
0.0
  0
LINE
  5
24A
330
18C
100
AcDbEntity
  8
0
  6
Continuous
 62
     7
370
    25
100
AcDbLine
 10
209.1
 20
153.1
 30
0.0
 11
211.0
 21
153.1
 31
0.0
  0
LINE
  5
24B
330
18C
100
AcDbEntity
  8
0
  6
Continuous
 62
     7
370
    25
100
AcDbLine
 10
194.2
 20
93.0
 30
0.0
 11
210.2
 21
93.0
 31
0.0
  0
LINE
  5
24C
330
18C
100
AcDbEntity
  8
0
  6
Continuous
 62
     7
370
    25
100
AcDbLine
 10
194.2
 20
73.0
 30
0.0
 11
210.2
 21
73.0
 31
0.0
  0
LINE
  5
24D
330
18C
100
AcDbEntity
  8
0
  6
Continuous
 62
     7
370
    25
100
AcDbLine
 10
200.2
 20
93.0
 30
0.0
 11
200.2
 21
99.0
 31
0.0
  0
LINE
  5
24E
330
18C
100
AcDbEntity
  8
0
  6
Continuous
 62
     7
370
    25
100
AcDbLine
 10
172.2
 20
-142.8
 30
0.0
 11
172.2
 21
99.0
 31
0.0
  0
LINE
  5
24F
330
18C
100
AcDbEntity
  8
0
  6
Continuous
 62
     7
370
    25
100
AcDbLine
 10
173.2999687854
 20
99.0
 30
0.0
 11
173.2999687854
 21
100.5
 31
0.0
  0
LINE
  5
250
330
18C
100
AcDbEntity
  8
0
  6
Continuous
 62
     7
370
    25
100
AcDbLine
 10
207.2
 20
99.0
 30
0.0
 11
173.2999687854
 21
99.0
 31
0.0
  0
LINE
  5
251
330
18C
100
AcDbEntity
  8
0
  6
Continuous
 62
     7
370
    25
100
AcDbLine
 10
154.2999687854
 20
100.5
 30
0.0
 11
154.2999687854
 21
99.0
 31
0.0
  0
LINE
  5
252
330
18C
100
AcDbEntity
  8
0
  6
Continuous
 62
     7
370
    25
100
AcDbLine
 10
173.2999687854
 20
100.5
 30
0.0
 11
154.2999687854
 21
100.5
 31
0.0
  0
LINE
  5
253
330
18C
100
AcDbEntity
  8
0
  6
Continuous
 62
     7
370
    25
100
AcDbLine
 10
193.2
 20
83.0
 30
0.0
 11
193.2
 21
-142.8
 31
0.0
  0
LINE
  5
254
330
18C
100
AcDbEntity
  8
0
  6
Continuous
 62
     7
370
    25
100
AcDbLine
 10
207.2
 20
99.0
 30
0.0
 11
207.2
 21
93.0
 31
0.0
  0
LINE
  5
255
330
18C
100
AcDbEntity
  8
0
  6
Continuous
 62
     7
370
    25
100
AcDbLine
 10
-192.8
 20
93.0
 30
0.0
 11
-208.8
 21
93.0
 31
0.0
  0
LINE
  5
256
330
18C
100
AcDbEntity
  8
0
  6
Continuous
 62
     7
370
    25
100
AcDbLine
 10
-192.8
 20
73.0
 30
0.0
 11
-208.8
 21
73.0
 31
0.0
  0
LINE
  5
257
330
18C
100
AcDbEntity
  8
0
  6
Continuous
 62
     7
370
    25
100
AcDbLine
 10
-198.8
 20
93.0
 30
0.0
 11
-198.8
 21
99.0
 31
0.0
  0
LINE
  5
258
330
18C
100
AcDbEntity
  8
0
  6
Continuous
 62
     7
370
    25
100
AcDbLine
 10
-205.8
 20
99.0
 30
0.0
 11
-171.8999687854
 21
99.0
 31
0.0
  0
LINE
  5
259
330
18C
100
AcDbEntity
  8
0
  6
Continuous
 62
     7
370
    25
100
AcDbLine
 10
-171.8999687854
 20
99.0
 30
0.0
 11
-171.8999687854
 21
100.5
 31
0.0
  0
LINE
  5
25A
330
18C
100
AcDbEntity
  8
0
  6
Continuous
 62
     7
370
    25
100
AcDbLine
 10
-171.8999687854
 20
100.5
 30
0.0
 11
-152.8999687854
 21
100.5
 31
0.0
  0
LINE
  5
25B
330
18C
100
AcDbEntity
  8
0
  6
Continuous
 62
     7
370
    25
100
AcDbLine
 10
194.2
 20
83.0
 30
0.0
 11
-192.8
 21
83.0
 31
0.0
  0
LINE
  5
25C
330
18C
100
AcDbEntity
  8
0
  6
Continuous
 62
     7
370
    25
100
AcDbLine
 10
-170.8
 20
-142.8
 30
0.0
 11
-170.8
 21
99.0
 31
0.0
  0
LINE
  5
25D
330
18C
100
AcDbEntity
  8
0
  6
Continuous
 62
     7
370
    25
100
AcDbLine
 10
-152.8999687854
 20
100.5
 30
0.0
 11
-152.8999687854
 21
99.0
 31
0.0
  0
LINE
  5
25E
330
18C
100
AcDbEntity
  8
0
  6
Continuous
 62
     7
370
    25
100
AcDbLine
 10
172.2
 20
99.0
 30
0.0
 11
-170.8
 21
99.0
 31
0.0
  0
LINE
  5
25F
330
18C
100
AcDbEntity
  8
0
  6
Continuous
 62
     7
370
    25
100
AcDbLine
 10
-191.8
 20
83.0
 30
0.0
 11
-191.8
 21
-142.8
 31
0.0
  0
LINE
  5
260
330
18C
100
AcDbEntity
  8
0
  6
Continuous
 62
     7
370
    25
100
AcDbLine
 10
-205.8
 20
99.0
 30
0.0
 11
-205.8
 21
93.0
 31
0.0
  0
LINE
  5
261
330
18C
100
AcDbEntity
  8
0
  6
Continuous
 62
     7
370
    25
100
AcDbLine
 10
122.2
 20
83.0
 30
0.0
 11
122.2
 21
99.0
 31
0.0
  0
LINE
  5
262
330
18C
100
AcDbEntity
  8
0
  6
Continuous
 62
     7
370
    25
100
AcDbLine
 10
59.3428571429
 20
83.0
 30
0.0
 11
59.3428571429
 21
99.0
 31
0.0
  0
LINE
  5
263
330
18C
100
AcDbEntity
  8
0
  6
Continuous
 62
     7
370
    25
100
AcDbLine
 10
-120.8
 20
83.0
 30
0.0
 11
-120.8
 21
99.0
 31
0.0
  0
LINE
  5
264
330
18C
100
AcDbEntity
  8
0
  6
Continuous
 62
     7
370
    25
100
AcDbLine
 10
-57.9428571429
 20
83.0
 30
0.0
 11
-57.9428571429
 21
99.0
 31
0.0
  0
LINE
  5
265
330
18C
100
AcDbEntity
  8
0
  6
Continuous
 62
     7
370
    25
100
AcDbLine
 10
19.3428571429
 20
83.0
 30
0.0
 11
19.3428571429
 21
99.0
 31
0.0
  0
LINE
  5
266
330
18C
100
AcDbEntity
  8
0
  6
Continuous
 62
     7
370
    25
100
AcDbLine
 10
-17.9428571429
 20
83.0
 30
0.0
 11
-17.9428571429
 21
99.0
 31
0.0
  0
LINE
  5
267
330
18C
100
AcDbEntity
  8
0
  6
Continuous
 62
     7
370
    25
100
AcDbLine
 10
216.0
 20
-142.8
 30
0.0
 11
-216.0
 21
-142.8
 31
0.0
  0
LINE
  5
268
330
18C
100
AcDbEntity
  8
0
  6
Continuous
 62
     8
370
    25
100
AcDbLine
 10
186.8851814027
 20
83.0
 30
0.0
 11
186.8851814027
 21
-142.8
 31
0.0
  0
LINE
  5
269
330
18C
100
AcDbEntity
  8
0
  6
Continuous
 62
     8
370
    25
100
AcDbLine
 10
173.9618721488
 20
83.0
 30
0.0
 11
173.9618721488
 21
-142.8
 31
0.0
  0
LINE
  5
26A
330
18C
100
AcDbEntity
  8
0
  6
Continuous
 62
     8
370
    25
100
AcDbLine
 10
-185.4851814027
 20
83.0
 30
0.0
 11
-185.4851814027
 21
-142.8
 31
0.0
  0
LINE
  5
26B
330
18C
100
AcDbEntity
  8
0
  6
Continuous
 62
     8
370
    25
100
AcDbLine
 10
-172.5618721488
 20
83.0
 30
0.0
 11
-172.5618721488
 21
-142.8
 31
0.0
  0
ARC
  5
26C
330
18C
100
AcDbEntity
  8
0
  6
Continuous
 62
     7
370
    25
100
AcDbCircle
 10
-214.0
 20
185.0
 30
0.0
 40
1.200000000000074
100
AcDbArc
 50
0.0
 51
90.0
  0
ARC
  5
26D
330
18C
100
AcDbEntity
  8
0
  6
Continuous
 62
     7
370
    25
100
AcDbCircle
 10
-214.0
 20
185.0
 30
0.0
 40
2.999999999999972
100
AcDbArc
 50
0.0
 51
90.0
  0
ARC
  5
26E
330
18C
100
AcDbEntity
  8
0
  6
Continuous
 62
     7
370
    25
100
AcDbCircle
 10
-214.0
 20
152.0
 30
0.0
 40
2.999999999999972
100
AcDbArc
 50
270.0
 51
0.0
  0
ARC
  5
26F
330
18C
100
AcDbEntity
  8
0
  6
Continuous
 62
     7
370
    25
100
AcDbCircle
 10
-214.0
 20
152.0
 30
0.0
 40
1.199999999999932
100
AcDbArc
 50
270.0
 51
0.0
  0
ARC
  5
270
330
18C
100
AcDbEntity
  8
0
  6
Continuous
 62
     7
370
    25
100
AcDbCircle
 10
214.0
 20
152.0
 30
0.0
 40
3.0
100
AcDbArc
 50
180.0
 51
270.0
  0
ARC
  5
271
330
18C
100
AcDbEntity
  8
0
  6
Continuous
 62
     7
370
    25
100
AcDbCircle
 10
214.0
 20
152.0
 30
0.0
 40
1.200000000000045
100
AcDbArc
 50
180.0
 51
270.0
  0
ARC
  5
272
330
18C
100
AcDbEntity
  8
0
  6
Continuous
 62
     7
370
    25
100
AcDbCircle
 10
214.0
 20
185.0
 30
0.0
 40
3.0
100
AcDbArc
 50
90.0
 51
180.0
  0
ARC
  5
273
330
18C
100
AcDbEntity
  8
0
  6
Continuous
 62
     7
370
    25
100
AcDbCircle
 10
214.0
 20
185.0
 30
0.0
 40
1.200000000000017
100
AcDbArc
 50
90.0
 51
180.0
  0
ARC
  5
274
330
18C
100
AcDbEntity
  8
0
  6
Continuous
 62
     7
370
    25
100
AcDbCircle
 10
222.8
 20
-169.5
 30
0.0
 40
10.0
100
AcDbArc
 50
270.0
 51
0.0
  0
ARC
  5
275
330
18C
100
AcDbEntity
  8
0
  6
Continuous
 62
     7
370
    25
100
AcDbCircle
 10
-224.2
 20
-169.5
 30
0.0
 40
10.00000000000003
100
AcDbArc
 50
180.0
 51
270.0
  0
ARC
  5
276
330
18C
100
AcDbEntity
  8
0
  6
Continuous
 62
     7
370
    25
100
AcDbCircle
 10
224.2
 20
-169.2
 30
0.0
 40
10.00000000000014
100
AcDbArc
 50
277.9894915903
 51
0.0
  0
VIEWPORT
  5
3DD
330
18C
100
AcDbEntity
  8
0
100
AcDbViewport
 10
0.0
 20
0.0
 30
0.0
 40
205.6
 41
156.0
 68
     1
 69
     1
 12
0.0
 22
200.0
 13
0.0
 23
0.0
 14
10.0
 24
10.0
 15
10.0
 25
10.0
 16
0.0
 26
0.0
 36
1.0
 17
0.0
 27
0.0
 37
0.0
 42
50.0
 43
0.0
 44
0.0
 45
408.0
 50
0.0
 51
0.0
 72
   100
 90
   557152
  1

281
     0
 71
     1
 74
     0
110
0.0
120
0.0
130
0.0
111
1.0
121
0.0
131
0.0
112
0.0
122
1.0
132
0.0
 79
     0
146
0.0
  0
ENDBLK
  5
18F
330
18C
100
AcDbEntity
  8
0
100
AcDbBlockEnd
  0
BLOCK
  5
279
330
277
100
AcDbEntity
  8
0
100
AcDbBlockBegin
  2
*Paper_Space2
 70
     0
 10
0.0
 20
0.0
 30
0.0
  3
*Paper_Space2
  1

  0
LWPOLYLINE
  5
28E
330
277
100
AcDbEntity
  8
0
  6
Continuous
 62
     7
370
    25
100
AcDbPolyline
 90
       10
 70
   128
 43
0.0
 10
14.8492424049
 20
339.1102106665
 10
15.5747766929
 20
338.8390989465
 10
16.2128008379
 20
338.8961479195
 10
16.686359712
 20
339.2744766373
 10
16.9383351259
 20
339.928453073
 10
16.9383351259
 20
340.7791980169
 10
16.686359712
 20
341.7240990729
 10
16.2128008379
 20
342.6491872286
 10
15.5747766929
 20
343.4428831995
 10
14.8492424049
 20
344.0094555378
  0
LWPOLYLINE
  5
290
330
277
100
AcDbEntity
  8
0
  6
Continuous
 62
     7
370
    25
100
AcDbPolyline
 90
       10
 70
   128
 43
0.0
 10
3.5355339059
 20
350.5407204324
 10
2.809999618
 20
350.8118321524
 10
2.1719754729
 20
350.7547831794
 10
1.6984165988
 20
350.3764544616
 10
1.446441185
 20
349.7224780259
 10
1.446441185
 20
348.871733082
 10
1.6984165988
 20
347.9268320259
 10
2.1719754729
 20
347.0017438702
 10
2.809999618
 20
346.2080478994
 10
3.5355339059
 20
345.6414755611
  0
LWPOLYLINE
  5
292
330
277
100
AcDbEntity
  8
0
  6
Continuous
 62
     7
370
    25
100
AcDbPolyline
 90
       10
 70
   128
 43
0.0
 10
7.0710678119
 20
368.0966796381
 10
7.1989990823
 20
367.1850062712
 10
7.5673624942
 20
366.2355878664
 10
8.1317279836
 20
365.3629382953
 10
8.8240247435
 20
364.672311975
 10
9.5607515673
 20
364.2470086325
 10
10.2530483272
 20
364.1383261275
 10
10.8174138167
 20
364.3593731742
 10
11.1857772286
 20
364.8834882365
 10
11.313708499
 20
365.6474553026
  0
LWPOLYLINE
  5
294
330
277
100
AcDbEntity
  8
0
  6
Continuous
 62
     7
370
    25
100
AcDbPolyline
 90
       10
 70
   128
 43
0.0
 10
11.313708499
 20
373.8128634215
 10
11.1857772286
 20
374.7245367884
 10
10.8174138167
 20
375.6739551932
 10
10.2530483272
 20
376.5466047643
 10
9.5607515673
 20
377.2372310845
 10
8.8240247435
 20
377.6625344271
 10
8.1317279836
 20
377.771216932
 10
7.5673624942
 20
377.5501698853
 10
7.1989990823
 20
377.0260548231
 10
7.0710678119
 20
376.2620877569
  0
LWPOLYLINE
  5
296
330
277
100
AcDbEntity
  8
0
  6
Continuous
 62
     7
370
    25
100
AcDbPolyline
 90
       10
 70
   128
 43
0.0
 10
14.8492424049
 20
391.3688226272
 10
15.5747766929
 20
391.0977109072
 10
16.2128008379
 20
391.1547598802
 10
16.686359712
 20
391.533088598
 10
16.9383351259
 20
392.1870650337
 10
16.9383351259
 20
393.0378099775
 10
16.686359712
 20
393.9827110336
 10
16.2128008379
 20
394.9077991893
 10
15.5747766929
 20
395.7014951602
 10
14.8492424049
 20
396.2680674985
  0
LWPOLYLINE
  5
298
330
277
100
AcDbEntity
  8
0
  6
Continuous
 62
     7
370
    25
100
AcDbPolyline
 90
       10
 70
   128
 43
0.0
 10
3.5355339059
 20
402.7993323931
 10
2.809999618
 20
403.070444113
 10
2.1719754729
 20
403.0133951401
 10
1.6984165988
 20
402.6350664223
 10
1.446441185
 20
401.9810899866
 10
1.446441185
 20
401.1303450427
 10
1.6984165988
 20
400.1854439866
 10
2.1719754729
 20
399.2603558309
 10
2.809999618
 20
398.46665986
 10
3.5355339059
 20
397.9000875218
  0
LWPOLYLINE
  5
29D
330
277
100
AcDbEntity
  8
0
  6
Continuous
 62
     7
370
    25
100
AcDbPolyline
 90
       12
 70
   128
 43
0.0
 10
-30.405591591
 20
346.4592106735
 10
-30.2623776258
 20
345.3916556824
 10
-29.8443380739
 20
344.5759389722
 10
-29.1853400136
 20
344.0781450597
 10
-28.3387715486
 20
343.9386022471
 10
-27.3732166211
 20
344.1686154632
 10
-26.3668987491
 20
344.7495504052
 10
-25.4013438216
 20
345.634343179
 10
-24.5547753566
 20
346.7513131362
 10
-23.8957772963
 20
348.0099700137
 10
-23.4777377444
 20
349.3083449168
 10
-23.3345237792
 20
350.5412512326
  0
LWPOLYLINE
  5
2A0
330
277
100
AcDbEntity
  8
0
  6
Continuous
 62
     7
370
    25
100
AcDbPolyline
 90
       12
 70
   128
 43
0.0
 10
-23.3345237792
 20
391.3682918269
 10
-23.4777377444
 20
392.4358468181
 10
-23.8957772963
 20
393.2515635282
 10
-24.5547753566
 20
393.7493574408
 10
-25.4013438216
 20
393.8889002534
 10
-26.3668987491
 20
393.6588870372
 10
-27.3732166211
 20
393.0779520952
 10
-28.3387715486
 20
392.1931593214
 10
-29.1853400136
 20
391.0761893642
 10
-29.8443380739
 20
389.8175324867
 10
-30.2623776258
 20
388.5191575836
 10
-30.405591591
 20
387.2862512678
  0
LWPOLYLINE
  5
2AC
330
277
100
AcDbEntity
  8
0
  6
Continuous
 62
     7
370
    25
100
AcDbPolyline
 90
        3
 70
   128
 43
0.0
 10
-24.6780266634
 20
392.1438795332
 10
-24.8212406286
 20
393.2114345243
 10
-25.1339302147
 20
393.8860859541
  0
LWPOLYLINE
  5
2BC
330
277
100
AcDbEntity
  8
0
  6
Continuous
 62
     7
370
    25
100
AcDbPolyline
 90
        9
 70
   128
 43
0.0
 10
-29.9496880397
 20
344.7170042526
 10
-29.6822744328
 20
344.7141899533
 10
-28.7167195054
 20
344.9442031694
 10
-27.7104016333
 20
345.5251381114
 10
-26.7448467058
 20
346.4099308853
 10
-25.8982782408
 20
347.5269008425
 10
-25.2392801805
 20
348.78555772
 10
-24.8212406286
 20
350.0839326231
 10
-24.6780266634
 20
351.3168389389
  0
LWPOLYLINE
  5
2DF
330
277
100
AcDbEntity
  8
0
  6
Continuous
 62
     7
370
    25
100
AcDbPolyline
 90
        8
 70
   128
 43
0.0
 10
-32.0368098398
 20
370.0137527793
 10
-32.5067387652
 20
369.2608520118
 10
-33.03422908
 20
368.093402898
 10
-33.3405439397
 20
366.921295322
 10
-33.4029653728
 20
365.8314591407
 10
-33.2168638669
 20
364.904722518
 10
-32.7960417194
 20
364.2098172696
 10
-32.4268451904
 20
363.9168590242
  0
LWPOLYLINE
  5
2ED
330
277
100
AcDbEntity
  8
0
  6
Continuous
 62
     7
370
    25
100
AcDbPolyline
 90
       24
 70
   128
 43
0.0
 10
-15.9099025767
 20
355.9879411459
 10
-15.0037207262
 20
356.6548966475
 10
-14.164746238
 20
357.5600428195
 10
-13.4552020119
 20
358.6362491111
 10
-12.9277116972
 20
359.8036982249
 10
-12.6213968374
 20
360.9758058009
 10
-12.5589754044
 20
362.0656419822
 10
-12.7450769102
 20
362.9923786049
 10
-13.1658990577
 20
363.6872838532
 10
-13.7902313931
 20
364.098819784
 10
-14.5717700435
 20
364.1964646597
 10
-15.4525518622
 20
363.9729766067
 10
-16.3672532912
 20
363.4449307115
 10
-17.2480351099
 20
362.6514897225
 10
-18.0295737602
 20
361.6514995281
 10
-18.6539060957
 20
360.5191248263
 10
-19.0747282432
 20
359.3383486686
 10
-19.260829749
 20
358.1967438208
 10
-19.198408316
 20
357.178977892
 10
-18.8920934562
 20
356.3605339252
 10
-18.3646031415
 20
355.8021121652
 10
-17.6550589154
 20
355.5451281995
 10
-16.8160844272
 20
355.608641353
 10
-15.9099025767
 20
355.9879411459
  0
LWPOLYLINE
  5
2F9
330
277
100
AcDbEntity
  8
0
  6
Continuous
 62
     7
370
    25
100
AcDbPolyline
 90
        9
 70
   128
 43
0.0
 10
-285.459007565
 20
348.5361527064
 10
-286.7026358762
 20
347.6613508345
 10
-287.6267350783
 20
346.6632965785
 10
-288.1957925572
 20
345.5803446037
 10
-288.3879397531
 20
344.4541121473
 10
-288.1957925572
 20
343.3278796908
 10
-287.6267350783
 20
342.244927716
 10
-286.7026358762
 20
341.2468734601
 10
-285.459007565
 20
340.3720715882
  0
LWPOLYLINE
  5
30A
330
277
100
AcDbEntity
  8
0
  6
Continuous
 62
     7
370
    25
100
AcDbPolyline
 90
       10
 70
   128
 43
0.0
 10
-92.8680434672
 20
283.0791108511
 10
-92.4071194674
 20
283.26132907
 10
-91.5522248589
 20
283.2793351106
 10
-90.6095200019
 20
282.9613370227
 10
-89.6489210031
 20
282.3309192698
 10
-88.7416710958
 20
281.4348370527
 10
-87.9550568552
 20
280.3395486901
 10
-87.347417861
 20
279.1262867093
 10
-86.9638199176
 20
277.885033201
 10
-86.8327127297
 20
276.7078462596
  0
LWPOLYLINE
  5
314
330
277
100
AcDbEntity
  8
0
  6
Continuous
 62
     7
370
    25
100
AcDbPolyline
 90
       17
 70
   128
 43
0.0
 10
-84.7113923861
 20
275.4832340919
 10
-84.8436464949
 20
276.963839866
 10
-85.2342247661
 20
278.5279115034
 10
-85.8648641939
 20
280.1023147528
 10
-86.7060767795
 20
281.6134322679
 10
-87.7185283574
 20
282.9906058733
 10
-88.854877817
 20
284.1694404618
 10
-90.0619907205
 20
285.0948150382
 10
-91.2834238103
 20
285.7234601157
 10
-92.4620642326
 20
286.0259809494
 10
-93.5428000711
 20
285.9882320012
 10
-94.4750973192
 20
285.6119783699
 10
-95.2153627939
 20
284.9148132572
 10
-95.7289825041
 20
283.929335329
 10
-95.9919401632
 20
282.7016244378
 10
-95.9919401632
 20
281.2890869805
 10
-95.9907962031
 20
281.2763840688
  0
LWPOLYLINE
  5
315
330
277
100
AcDbEntity
  8
0
  6
Continuous
 62
     7
370
    25
100
AcDbPolyline
 90
        9
 70
   128
 43
0.0
 10
-90.9912025399
 20
272.615895445
 10
-90.0619907205
 20
272.0493224871
 10
-88.854877817
 20
271.5809941708
 10
-87.7185283574
 20
271.4478276
 10
-86.7060767795
 20
271.6560494954
 10
-85.8648641939
 20
272.1959236327
 10
-85.2342247661
 20
273.0422060972
 10
-84.8436464949
 20
274.1553256615
 10
-84.7113923861
 20
275.4832340919
  0
LWPOLYLINE
  5
316
330
277
100
AcDbEntity
  8
0
  6
Continuous
 62
     7
370
    25
100
AcDbPolyline
 90
       16
 70
   128
 43
0.0
 10
-72.1181918306
 20
280.0505219264
 10
-71.3919321836
 20
280.7297635318
 10
-70.8820602955
 20
281.6857771401
 10
-70.611399078
 20
282.8757696214
 10
-70.5920638821
 20
284.2464744717
 10
-70.8249201909
 20
285.7365361306
 10
-71.2995448785
 20
287.2792563822
 10
-71.9946927704
 20
288.805579904
 10
-72.8792476212
 20
290.2471853248
 10
-73.9136149417
 20
291.5395434292
 10
-75.0514943291
 20
292.6248056178
 10
-76.2419519683
 20
293.4543933295
 10
-77.4317005338
 20
293.9911725166
 10
-78.5674844396
 20
294.2111158419
 10
-79.5984636689
 20
294.104378191
 10
-80.2257859425
 20
293.8413385564
  0
LWPOLYLINE
  5
31A
330
277
100
AcDbEntity
  8
0
  6
Continuous
 62
     7
370
    25
100
AcDbPolyline
 90
       19
 70
   128
 43
0.0
 10
16.8497236971
 20
180.9565058431
 10
16.3126956206
 20
183.5856678563
 10
15.2381694429
 20
187.9216155134
 10
13.9234814968
 20
192.2917749926
 10
12.3761552945
 20
196.6711373565
 10
10.6050456582
 20
201.0346410022
 10
8.6202880464
 20
205.3573150814
 10
6.4332405525
 20
209.614422399
 10
4.0564189062
 20
213.7816009766
 10
1.5034248499
 20
217.8350034672
 10
-1.2111316988
 20
221.7514336257
 10
-4.0717162552
 20
225.5084790533
 10
-7.0619586661
 20
229.0846394557
 10
-10.1647467902
 20
232.4594496821
 10
-13.3623244255
 20
235.6135968404
 10
-16.6363929217
 20
238.5290308182
 10
-19.9682158975
 20
241.1890675776
 10
-23.338726462
 20
243.5784846322
 10
-26.7286363289
 20
245.68360816
  0
LWPOLYLINE
  5
31D
330
277
100
AcDbEntity
  8
0
  6
Continuous
 62
     7
370
    25
100
AcDbPolyline
 90
       20
 70
   128
 43
0.0
 10
29.0317841304
 20
181.6465877436
 10
28.4546193806
 20
185.840010071
 10
27.6264041196
 20
190.1169327509
 10
26.5518779419
 20
194.4528804079
 10
25.2371899958
 20
198.8230398872
 10
23.6898637935
 20
203.2024022511
 10
21.9187541572
 20
207.5659058968
 10
19.9339965454
 20
211.8885799759
 10
17.7469490515
 20
216.1456872936
 10
15.3701274052
 20
220.3128658711
 10
12.8171333489
 20
224.3662683617
 10
10.1025768002
 20
228.2826985203
 10
7.2419922438
 20
232.0397439479
 10
4.2517498329
 20
235.6159043503
 10
1.1489617088
 20
238.9907145767
 10
-2.0486159265
 20
242.144861735
 10
-5.3226844227
 20
245.0602957128
 10
-8.6545073985
 20
247.7203324722
 10
-12.0250179631
 20
250.1097495267
 10
-15.4149278299
 20
252.2148730546
  0
LWPOLYLINE
  5
32D
330
277
100
AcDbEntity
  8
0
  6
Continuous
 62
     7
370
    25
100
AcDbPolyline
 90
       22
 70
   128
 43
0.0
 10
-67.1751442127
 20
141.5239992981
 10
-72.4351586037
 20
141.6429370943
 10
-77.8030012841
 20
142.0989500238
 10
-83.267910471
 20
142.8911238435
 10
-88.8189297766
 20
144.0178703545
 10
-94.4449301742
 20
145.4769305857
 10
-100.1346323104
 20
147.265379323
 10
-105.8766291184
 20
149.3796309736
 10
-111.6594086881
 20
151.8154467552
 10
-117.4713773454
 20
154.5679431938
 10
-123.3008828962
 20
157.6316019141
 10
-129.1362379874
 20
161.0002807039
 10
-134.9657435382
 20
164.6672258276
 10
-140.7777121955
 20
168.6250855669
 10
-146.5604917652
 20
172.8659249598
 10
-152.3024885732
 20
177.3812417094
 10
-157.9921907094
 20
182.1619832294
 10
-163.618191107
 20
187.1985647936
 10
-169.1692104126
 20
192.480888752
 10
-174.6341195995
 20
197.9983647748
 10
-180.0019622799
 20
203.7399310849
 10
-185.2619766709
 20
209.6940766353
  0
LWPOLYLINE
  5
330
330
277
100
AcDbEntity
  8
0
  6
Continuous
 62
     7
370
    25
100
AcDbPolyline
 90
       20
 70
   128
 43
0.0
 10
-62.8433676299
 20
149.3117719451
 10
-64.9336578665
 20
149.5282638414
 10
-70.3985670534
 20
150.3204376611
 10
-75.949586359
 20
151.4471841721
 10
-81.5755867567
 20
152.9062444033
 10
-87.2652888928
 20
154.6946931406
 10
-93.0072857008
 20
156.8089447912
 10
-98.7900652705
 20
159.2447605728
 10
-104.6020339278
 20
161.9972570113
 10
-110.4315394786
 20
165.0609157317
 10
-116.2668945698
 20
168.4295945215
 10
-122.0964001206
 20
172.0965396452
 10
-127.9083687779
 20
176.0543993844
 10
-133.6911483476
 20
180.2952387774
 10
-139.4331451556
 20
184.8105555269
 10
-145.1228472918
 20
189.5912970469
 10
-150.7488476894
 20
194.6278786112
 10
-156.299866995
 20
199.9102025696
 10
-161.7647761819
 20
205.4276785924
 10
-163.8550664185
 20
207.6245844326
  0
LWPOLYLINE
  5
331
330
277
100
AcDbEntity
  8
0
  6
Continuous
 62
     7
370
    25
100
AcDbPolyline
 90
        9
 70
   128
 43
0.0
 10
-284.256926037
 20
275.0067255811
 10
-285.5005543482
 20
274.1319237092
 10
-286.4246535502
 20
273.1338694532
 10
-286.9937110292
 20
272.0509174785
 10
-287.1858582251
 20
270.924685022
 10
-286.9937110292
 20
269.7984525655
 10
-286.4246535502
 20
268.7155005908
 10
-285.5005543482
 20
267.7174463348
 10
-284.256926037
 20
266.8426444629
  0
LINE
  5
338
330
277
100
AcDbEntity
  8
0
  6
Continuous
 62
     7
370
    25
100
AcDbLine
 10
-17.5060966544
 20
337.4498438898
 30
0.0
 11
-17.5060966544
 21
337.5751143548
 31
0.0
  0
LINE
  5
339
330
277
100
AcDbEntity
  8
0
  6
Continuous
 62
     7
370
    25
100
AcDbLine
 10
-17.5060966544
 20
412.614962837
 30
0.0
 11
-17.5060966544
 21
414.5312965318
 31
0.0
  0
LINE
  5
33A
330
277
100
AcDbEntity
  8
0
  6
Continuous
 62
     7
370
    25
100
AcDbLine
 10
-32.4268451904
 20
363.9168590242
 30
0.0
 11
-18.2847095667
 21
355.752777906
 31
0.0
  0
LINE
  5
33B
330
277
100
AcDbEntity
  8
0
  6
Continuous
 62
     7
370
    25
100
AcDbLine
 10
-13.5350955867
 20
363.9802420986
 30
0.0
 11
-27.6772312104
 21
372.1443232168
 31
0.0
  0
LINE
  5
33C
330
277
100
AcDbEntity
  8
0
  6
Continuous
 62
     7
370
    25
100
AcDbLine
 10
-288.3879397531
 20
344.4541121473
 30
0.0
 11
-288.3879397531
 21
281.9070859568
 31
0.0
  0
LINE
  5
33D
330
277
100
AcDbEntity
  8
0
  6
Continuous
 62
     7
370
    25
100
AcDbLine
 10
-92.8680434672
 20
283.0791108511
 30
0.0
 11
-126.4595139027
 21
263.6871677378
 31
0.0
  0
LINE
  5
33E
330
277
100
AcDbEntity
  8
0
  6
Continuous
 62
     7
370
    25
100
AcDbLine
 10
-116.458701163
 20
257.9138214323
 30
0.0
 11
-87.8684498041
 21
274.4186222273
 31
0.0
  0
LINE
  5
33F
330
277
100
AcDbEntity
  8
0
  6
Continuous
 62
     7
370
    25
100
AcDbLine
 10
-80.2257859425
 20
293.8413385564
 30
0.0
 11
-94.3679215662
 21
285.6772574382
 31
0.0
  0
LINE
  5
340
330
277
100
AcDbEntity
  8
0
  6
Continuous
 62
     7
370
    25
100
AcDbLine
 10
-86.3685717051
 20
271.8204756401
 30
0.0
 11
-79.2975038932
 21
275.9025161992
 31
0.0
  0
LINE
  5
341
330
277
100
AcDbEntity
  8
0
  6
Continuous
 62
     7
370
    25
100
AcDbLine
 10
-287.1858582251
 20
270.924685022
 30
0.0
 11
-287.1858582251
 21
21.8797373968
 31
0.0
  0
LINE
  5
342
330
277
100
AcDbEntity
  8
0
  6
Continuous
 62
     7
370
    25
100
AcDbLine
 10
25.4558441227
 20
398.3104147787
 30
0.0
 11
26.799347007
 21
399.0860024849
 31
0.0
  0
LINE
  5
343
330
277
100
AcDbEntity
  8
0
  6
Continuous
 62
     7
370
    25
100
AcDbLine
 10
25.4558441227
 20
398.3104147787
 30
0.0
 11
-7.0710678119
 21
417.0878013506
 31
0.0
  0
LINE
  5
344
330
277
100
AcDbEntity
  8
0
  6
Continuous
 62
     7
370
    25
100
AcDbLine
 10
-39.5979797464
 20
398.3104147787
 30
0.0
 11
-7.0710678119
 21
417.0878013506
 31
0.0
  0
LINE
  5
345
330
277
100
AcDbEntity
  8
0
  6
Continuous
 62
     7
370
    25
100
AcDbLine
 10
-40.9414826307
 20
399.0860024849
 30
0.0
 11
-39.5979797464
 21
398.3104147787
 31
0.0
  0
LINE
  5
346
330
277
100
AcDbEntity
  8
0
  6
Continuous
 62
     7
370
    25
100
AcDbLine
 10
-40.9414826307
 20
399.0860024849
 30
0.0
 11
-7.0710678119
 21
418.6389767631
 31
0.0
  0
LINE
  5
347
330
277
100
AcDbEntity
  8
0
  6
Continuous
 62
     7
370
    25
100
AcDbLine
 10
26.799347007
 20
399.0860024849
 30
0.0
 11
-7.0710678119
 21
418.6389767631
 31
0.0
  0
LINE
  5
348
330
277
100
AcDbEntity
  8
0
  6
Continuous
 62
     7
370
    25
100
AcDbLine
 10
25.4558441227
 20
324.821741709
 30
0.0
 11
25.4558441227
 21
398.3104147787
 31
0.0
  0
LINE
  5
349
330
277
100
AcDbEntity
  8
0
  6
Continuous
 62
     7
370
    25
100
AcDbLine
 10
-7.0710678119
 20
343.5991282809
 30
0.0
 11
25.4558441227
 21
324.821741709
 31
0.0
  0
LINE
  5
34A
330
277
100
AcDbEntity
  8
0
  6
Continuous
 62
     7
370
    25
100
AcDbLine
 10
-7.0710678119
 20
417.0878013506
 30
0.0
 11
-7.0710678119
 21
343.5991282809
 31
0.0
  0
LINE
  5
34B
330
277
100
AcDbEntity
  8
0
  6
Continuous
 62
     7
370
    25
100
AcDbLine
 10
14.8492424049
 20
344.0094555378
 30
0.0
 11
3.5355339059
 21
350.5407204324
 31
0.0
  0
LINE
  5
34C
330
277
100
AcDbEntity
  8
0
  6
Continuous
 62
     7
370
    25
100
AcDbLine
 10
3.5355339059
 20
345.6414755611
 30
0.0
 11
14.8492424049
 21
339.1102106665
 31
0.0
  0
LINE
  5
34D
330
277
100
AcDbEntity
  8
0
  6
Continuous
 62
     7
370
    25
100
AcDbLine
 10
11.313708499
 20
365.6474553026
 30
0.0
 11
11.313708499
 21
373.8128634215
 31
0.0
  0
LINE
  5
34E
330
277
100
AcDbEntity
  8
0
  6
Continuous
 62
     7
370
    25
100
AcDbLine
 10
7.0710678119
 20
376.2620877569
 30
0.0
 11
7.0710678119
 21
368.0966796381
 31
0.0
  0
LINE
  5
34F
330
277
100
AcDbEntity
  8
0
  6
Continuous
 62
     7
370
    25
100
AcDbLine
 10
14.8492424049
 20
396.2680674985
 30
0.0
 11
3.5355339059
 21
402.7993323931
 31
0.0
  0
LINE
  5
350
330
277
100
AcDbEntity
  8
0
  6
Continuous
 62
     7
370
    25
100
AcDbLine
 10
3.5355339059
 20
397.9000875218
 30
0.0
 11
14.8492424049
 21
391.3688226272
 31
0.0
  0
LINE
  5
351
330
277
100
AcDbEntity
  8
0
  6
Continuous
 62
     7
370
    25
100
AcDbLine
 10
25.4558441227
 20
324.821741709
 30
0.0
 11
26.799347007
 21
325.5973294152
 31
0.0
  0
LINE
  5
352
330
277
100
AcDbEntity
  8
0
  6
Continuous
 62
     7
370
    25
100
AcDbLine
 10
26.799347007
 20
325.5973294152
 30
0.0
 11
26.799347007
 21
399.0860024849
 31
0.0
  0
LINE
  5
353
330
277
100
AcDbEntity
  8
0
  6
Continuous
 62
     7
370
    25
100
AcDbLine
 10
-30.405591591
 20
362.7500141583
 30
0.0
 11
-30.405591591
 21
346.4592106735
 31
0.0
  0
LINE
  5
354
330
277
100
AcDbEntity
  8
0
  6
Continuous
 62
     7
370
    25
100
AcDbLine
 10
-23.3345237792
 20
350.5412512326
 30
0.0
 11
-23.3345237792
 21
358.6679735992
 31
0.0
  0
LINE
  5
355
330
277
100
AcDbEntity
  8
0
  6
Continuous
 62
     7
370
    25
100
AcDbLine
 10
-23.3345237792
 20
369.6373315796
 30
0.0
 11
-23.3345237792
 21
391.3682918269
 31
0.0
  0
LINE
  5
356
330
277
100
AcDbEntity
  8
0
  6
Continuous
 62
     7
370
    25
100
AcDbLine
 10
-30.405591591
 20
387.2862512678
 30
0.0
 11
-30.405591591
 21
370.9554350301
 31
0.0
  0
LINE
  5
357
330
277
100
AcDbEntity
  8
0
  6
Continuous
 62
     7
370
    25
100
AcDbLine
 10
-30.405591591
 20
370.9554350301
 30
0.0
 11
-39.5979797464
 21
365.6487823032
 31
0.0
  0
LINE
  5
358
330
277
100
AcDbEntity
  8
0
  6
Continuous
 62
     7
370
    25
100
AcDbLine
 10
-39.5979797464
 20
398.3104147787
 30
0.0
 11
-39.5979797464
 21
365.6487823032
 31
0.0
  0
LINE
  5
359
330
277
100
AcDbEntity
  8
0
  6
Continuous
 62
     7
370
    25
100
AcDbLine
 10
-39.5979797464
 20
324.821741709
 30
0.0
 11
-7.0710678119
 21
343.5991282809
 31
0.0
  0
LINE
  5
35A
330
277
100
AcDbEntity
  8
0
  6
Continuous
 62
     7
370
    25
100
AcDbLine
 10
-39.5979797464
 20
357.4833741844
 30
0.0
 11
-39.5979797464
 21
324.821741709
 31
0.0
  0
LINE
  5
35B
330
277
100
AcDbEntity
  8
0
  6
Continuous
 62
     7
370
    25
100
AcDbLine
 10
-39.5979797464
 20
357.4833741844
 30
0.0
 11
-30.4402474066
 21
362.7700205348
 31
0.0
  0
LINE
  5
35C
330
277
100
AcDbEntity
  8
0
  6
Continuous
 62
     7
370
    25
100
AcDbLine
 10
-40.9414826307
 20
366.4243700095
 30
0.0
 11
-39.5979797464
 21
365.6487823032
 31
0.0
  0
LINE
  5
35D
330
277
100
AcDbEntity
  8
0
  6
Continuous
 62
     7
370
    25
100
AcDbLine
 10
-40.9414826307
 20
366.4243700095
 30
0.0
 11
-40.9414826307
 21
399.0860024849
 31
0.0
  0
LINE
  5
35E
330
277
100
AcDbEntity
  8
0
  6
Continuous
 62
     7
370
    25
100
AcDbLine
 10
16.1927452892
 20
392.1444103334
 30
0.0
 11
14.8492424049
 21
391.3688226272
 31
0.0
  0
LINE
  5
35F
330
277
100
AcDbEntity
  8
0
  6
Continuous
 62
     7
370
    25
100
AcDbLine
 10
16.1927452892
 20
392.1444103334
 30
0.0
 11
16.8620870465
 21
391.8831456449
 31
0.0
  0
LINE
  5
360
330
277
100
AcDbEntity
  8
0
  6
Continuous
 62
     7
370
    25
100
AcDbLine
 10
-24.6780266634
 20
392.1438795332
 30
0.0
 11
-23.3345237792
 21
391.3682918269
 31
0.0
  0
LINE
  5
361
330
277
100
AcDbEntity
  8
0
  6
Continuous
 62
     7
370
    25
100
AcDbLine
 10
4.8790367902
 20
398.675675228
 30
0.0
 11
3.5355339059
 21
397.9000875218
 31
0.0
  0
LINE
  5
362
330
277
100
AcDbEntity
  8
0
  6
Continuous
 62
     7
370
    25
100
AcDbLine
 10
4.8790367902
 20
398.675675228
 30
0.0
 11
16.1927452892
 21
392.1444103334
 31
0.0
  0
LINE
  5
363
330
277
100
AcDbEntity
  8
0
  6
Continuous
 62
     7
370
    25
100
AcDbLine
 10
-24.6780266634
 20
351.3168389389
 30
0.0
 11
-23.3345237792
 21
350.5412512326
 31
0.0
  0
LINE
  5
364
330
277
100
AcDbEntity
  8
0
  6
Continuous
 62
     7
370
    25
100
AcDbLine
 10
-24.6780266634
 20
351.3168389389
 30
0.0
 11
-24.6780266634
 21
359.4435613054
 31
0.0
  0
LINE
  5
365
330
277
100
AcDbEntity
  8
0
  6
Continuous
 62
     7
370
    25
100
AcDbLine
 10
-24.6780266634
 20
370.4129192858
 30
0.0
 11
-24.6780266634
 21
392.1438795332
 31
0.0
  0
LINE
  5
366
330
277
100
AcDbEntity
  8
0
  6
Continuous
 62
     7
370
    25
100
AcDbLine
 10
-40.9414826307
 20
358.2589618906
 30
0.0
 11
-39.5979797464
 21
357.4833741844
 31
0.0
  0
LINE
  5
367
330
277
100
AcDbEntity
  8
0
  6
Continuous
 62
     7
370
    25
100
AcDbLine
 10
-40.9414826307
 20
358.2589618906
 30
0.0
 11
-31.7837502908
 21
363.545608241
 31
0.0
  0
LINE
  5
368
330
277
100
AcDbEntity
  8
0
  6
Continuous
 62
     7
370
    25
100
AcDbLine
 10
-39.5979797464
 20
324.821741709
 30
0.0
 11
-40.9414826307
 21
325.5973294152
 31
0.0
  0
LINE
  5
369
330
277
100
AcDbEntity
  8
0
  6
Continuous
 62
     7
370
    25
100
AcDbLine
 10
-40.9414826307
 20
325.5973294152
 30
0.0
 11
-40.9414826307
 21
358.2589618906
 31
0.0
  0
LINE
  5
36A
330
277
100
AcDbEntity
  8
0
  6
Continuous
 62
     7
370
    25
100
AcDbLine
 10
8.4145706961
 20
377.0376754632
 30
0.0
 11
7.0710678119
 21
376.2620877569
 31
0.0
  0
LINE
  5
36B
330
277
100
AcDbEntity
  8
0
  6
Continuous
 62
     7
370
    25
100
AcDbLine
 10
8.5230463981
 20
377.7483627134
 30
0.0
 11
8.4145706961
 21
377.0376754632
 31
0.0
  0
LINE
  5
36C
330
277
100
AcDbEntity
  8
0
  6
Continuous
 62
     7
370
    25
100
AcDbLine
 10
8.4145706961
 20
368.8722673443
 30
0.0
 11
7.0710678119
 21
368.0966796381
 31
0.0
  0
LINE
  5
36D
330
277
100
AcDbEntity
  8
0
  6
Continuous
 62
     7
370
    25
100
AcDbLine
 10
8.4145706961
 20
377.0376754632
 30
0.0
 11
8.4145706961
 21
368.8722673443
 31
0.0
  0
LINE
  5
36E
330
277
100
AcDbEntity
  8
0
  6
Continuous
 62
     7
370
    25
100
AcDbLine
 10
16.1927452892
 20
339.8857983727
 30
0.0
 11
14.8492424049
 21
339.1102106665
 31
0.0
  0
LINE
  5
36F
330
277
100
AcDbEntity
  8
0
  6
Continuous
 62
     7
370
    25
100
AcDbLine
 10
16.1927452892
 20
339.8857983727
 30
0.0
 11
16.8620870465
 21
339.6245336842
 31
0.0
  0
LINE
  5
370
330
277
100
AcDbEntity
  8
0
  6
Continuous
 62
     7
370
    25
100
AcDbLine
 10
4.8790367902
 20
346.4170632673
 30
0.0
 11
3.5355339059
 21
345.6414755611
 31
0.0
  0
LINE
  5
371
330
277
100
AcDbEntity
  8
0
  6
Continuous
 62
     7
370
    25
100
AcDbLine
 10
4.8790367902
 20
346.4170632673
 30
0.0
 11
16.1927452892
 21
339.8857983727
 31
0.0
  0
LINE
  5
372
330
277
100
AcDbEntity
  8
0
  6
Continuous
 62
     7
370
    25
100
AcDbLine
 10
-10.6066017178
 20
496.8374160693
 30
0.0
 11
-266.5792565073
 21
349.0675478294
 31
0.0
  0
LINE
  5
373
330
277
100
AcDbEntity
  8
0
  6
Continuous
 62
     7
370
    25
100
AcDbLine
 10
-10.6066017178
 20
249.1405442117
 30
0.0
 11
-10.6066017178
 21
341.5581080013
 31
0.0
  0
LINE
  5
374
330
277
100
AcDbEntity
  8
0
  6
Continuous
 62
     7
370
    25
100
AcDbLine
 10
-10.6066017178
 20
416.5979564835
 30
0.0
 11
-10.6066017178
 21
496.8374160693
 31
0.0
  0
LINE
  5
375
330
277
100
AcDbEntity
  8
0
  6
Continuous
 62
     7
370
    25
100
AcDbLine
 10
-266.5792565073
 20
349.0675478294
 30
0.0
 11
-266.5792565073
 21
344.5765733641
 31
0.0
  0
LINE
  5
376
330
277
100
AcDbEntity
  8
0
  6
Continuous
 62
     7
370
    25
100
AcDbLine
 10
-10.6066017178
 20
496.8374160693
 30
0.0
 11
-23.4759451354
 21
504.2667298869
 31
0.0
  0
LINE
  5
377
330
277
100
AcDbEntity
  8
0
  6
Continuous
 62
     7
370
    25
100
AcDbLine
 10
-266.5792565073
 20
349.0675478294
 30
0.0
 11
-279.4485999249
 21
356.496861647
 31
0.0
  0
LINE
  5
378
330
277
100
AcDbEntity
  8
0
  6
Continuous
 62
     7
370
    25
100
AcDbLine
 10
-23.4759451354
 20
504.2667298869
 30
0.0
 11
-279.4485999249
 21
356.496861647
 31
0.0
  0
LINE
  5
379
330
277
100
AcDbEntity
  8
0
  6
Continuous
 62
     7
370
    25
100
AcDbLine
 10
-279.4485999249
 20
356.496861647
 30
0.0
 11
-279.4485999249
 21
352.0058871816
 31
0.0
  0
LINE
  5
37A
330
277
100
AcDbEntity
  8
0
  6
Continuous
 62
     7
370
    25
100
AcDbLine
 10
-45.9619407771
 20
322.754497877
 30
0.0
 11
-45.9619407771
 21
399.835950519
 31
0.0
  0
LINE
  5
37B
330
277
100
AcDbEntity
  8
0
  6
Continuous
 62
     7
370
    25
100
AcDbLine
 10
-41.71930009
 20
399.835950519
 30
0.0
 11
-41.71930009
 21
322.754497877
 31
0.0
  0
LINE
  5
37C
330
277
100
AcDbEntity
  8
0
  6
Continuous
 62
     7
370
    25
100
AcDbLine
 10
-47.3761543395
 20
400.6523586308
 30
0.0
 11
-45.9619407771
 21
399.835950519
 31
0.0
  0
LINE
  5
37D
330
277
100
AcDbEntity
  8
0
  6
Continuous
 62
     7
370
    25
100
AcDbLine
 10
-47.3761543395
 20
400.6523586308
 30
0.0
 11
-46.1033621334
 21
401.3871259315
 31
0.0
  0
LINE
  5
37E
330
277
100
AcDbEntity
  8
0
  6
Continuous
 62
     7
370
    25
100
AcDbLine
 10
-46.1033621334
 20
401.3871259315
 30
0.0
 11
-44.689148571
 21
400.5707178197
 31
0.0
  0
LINE
  5
37F
330
277
100
AcDbEntity
  8
0
  6
Continuous
 62
     7
370
    25
100
AcDbLine
 10
-42.9920922961
 20
400.5707178197
 30
0.0
 11
-42.284985515
 21
400.9789218756
 31
0.0
  0
LINE
  5
380
330
277
100
AcDbEntity
  8
0
  6
Continuous
 62
     7
370
    25
100
AcDbLine
 10
-42.284985515
 20
400.9789218756
 30
0.0
 11
-41.0121933088
 21
400.2441545749
 31
0.0
  0
LINE
  5
381
330
277
100
AcDbEntity
  8
0
  6
Continuous
 62
     7
370
    25
100
AcDbLine
 10
-41.71930009
 20
399.835950519
 30
0.0
 11
-41.0121933088
 21
400.2441545749
 31
0.0
  0
LINE
  5
382
330
277
100
AcDbEntity
  8
0
  6
Continuous
 62
     7
370
    25
100
AcDbLine
 10
-41.0121933088
 20
400.2441545749
 30
0.0
 11
-41.0121933088
 21
401.7139280363
 31
0.0
  0
LINE
  5
383
330
277
100
AcDbEntity
  8
0
  6
Continuous
 62
     7
370
    25
100
AcDbLine
 10
-19.091883092
 20
414.3682537696
 30
0.0
 11
-41.0121933088
 21
401.7139280363
 31
0.0
  0
LINE
  5
384
330
277
100
AcDbEntity
  8
0
  6
Continuous
 62
     7
370
    25
100
AcDbLine
 10
-19.091883092
 20
414.3682537696
 30
0.0
 11
-19.091883092
 21
412.8984803082
 31
0.0
  0
LINE
  5
385
330
277
100
AcDbEntity
  8
0
  6
Continuous
 62
     7
370
    25
100
AcDbLine
 10
-19.091883092
 20
412.8984803082
 30
0.0
 11
-18.3847763108
 21
413.3066843641
 31
0.0
  0
LINE
  5
386
330
277
100
AcDbEntity
  8
0
  6
Continuous
 62
     7
370
    25
100
AcDbLine
 10
-18.3847763108
 20
336.2252317221
 30
0.0
 11
-19.091883092
 21
335.8170276662
 31
0.0
  0
LINE
  5
387
330
277
100
AcDbEntity
  8
0
  6
Continuous
 62
     7
370
    25
100
AcDbLine
 10
-19.091883092
 20
335.8170276662
 30
0.0
 11
-19.091883092
 21
334.3472542048
 31
0.0
  0
LINE
  5
388
330
277
100
AcDbEntity
  8
0
  6
Continuous
 62
     7
370
    25
100
AcDbLine
 10
-19.091883092
 20
334.3472542048
 30
0.0
 11
-41.0121933088
 21
321.6929284715
 31
0.0
  0
LINE
  5
389
330
277
100
AcDbEntity
  8
0
  6
Continuous
 62
     7
370
    25
100
AcDbLine
 10
-41.0121933088
 20
321.6929284715
 30
0.0
 11
-41.0121933088
 21
323.1627019329
 31
0.0
  0
LINE
  5
38A
330
277
100
AcDbEntity
  8
0
  6
Continuous
 62
     7
370
    25
100
AcDbLine
 10
-41.0121933088
 20
323.1627019329
 30
0.0
 11
-41.71930009
 21
322.754497877
 31
0.0
  0
LINE
  5
38B
330
277
100
AcDbEntity
  8
0
  6
Continuous
 62
     7
370
    25
100
AcDbLine
 10
-30.0520382004
 20
371.909159977
 30
0.0
 11
-30.405591591
 21
371.6835101776
 31
0.0
  0
LINE
  5
38C
330
277
100
AcDbEntity
  8
0
  6
Continuous
 62
     7
370
    25
100
AcDbLine
 10
-42.284985515
 20
402.448695337
 30
0.0
 11
-41.0121933088
 21
401.7139280363
 31
0.0
  0
LINE
  5
38D
330
277
100
AcDbEntity
  8
0
  6
Continuous
 62
     7
370
    25
100
AcDbLine
 10
-42.284985515
 20
402.448695337
 30
0.0
 11
-20.3646752982
 21
415.1030210702
 31
0.0
  0
LINE
  5
38E
330
277
100
AcDbEntity
  8
0
  6
Continuous
 62
     7
370
    25
100
AcDbLine
 10
-20.3646752982
 20
415.1030210702
 30
0.0
 11
-19.091883092
 21
414.3682537696
 31
0.0
  0
LINE
  5
38F
330
277
100
AcDbEntity
  8
0
  6
Continuous
 62
     7
370
    25
100
AcDbLine
 10
-42.284985515
 20
400.9789218756
 30
0.0
 11
-42.284985515
 21
402.448695337
 31
0.0
  0
LINE
  5
390
330
277
100
AcDbEntity
  8
0
  6
Continuous
 62
     7
370
    25
100
AcDbLine
 10
-47.3761543395
 20
323.5709059888
 30
0.0
 11
-45.9619407771
 21
322.754497877
 31
0.0
  0
LINE
  5
391
330
277
100
AcDbEntity
  8
0
  6
Continuous
 62
     7
370
    25
100
AcDbLine
 10
-47.3761543395
 20
323.5709059888
 30
0.0
 11
-47.3761543395
 21
400.6523586308
 31
0.0
  0
LINE
  5
392
330
277
100
AcDbEntity
  8
0
  6
Continuous
 62
     7
370
    25
100
AcDbLine
 10
-19.657568517
 20
415.0211413989
 30
0.0
 11
-21.0717820794
 21
415.8375495107
 31
0.0
  0
LINE
  5
393
330
277
100
AcDbEntity
  8
0
  6
Continuous
 62
     7
370
    25
100
AcDbLine
 10
-21.0717820794
 20
415.8375495107
 30
0.0
 11
-19.7989898732
 21
416.5723168114
 31
0.0
  0
LINE
  5
394
330
277
100
AcDbEntity
  8
0
  6
Continuous
 62
     7
370
    25
100
AcDbLine
 10
-19.7989898732
 20
416.5723168114
 30
0.0
 11
-18.3847763108
 21
415.7559086996
 31
0.0
  0
LINE
  5
395
330
277
100
AcDbEntity
  8
0
  6
Continuous
 62
     7
370
    25
100
AcDbLine
 10
-21.0717820794
 20
414.6948170143
 30
0.0
 11
-21.0717820794
 21
415.8375495107
 31
0.0
  0
LINE
  5
396
330
277
100
AcDbEntity
  8
0
  6
Continuous
 62
     7
370
    25
100
AcDbLine
 10
-42.284985515
 20
322.4276957722
 30
0.0
 11
-41.0121933088
 21
321.6929284715
 31
0.0
  0
LINE
  5
397
330
277
100
AcDbEntity
  8
0
  6
Continuous
 62
     7
370
    25
100
AcDbLine
 10
-42.284985515
 20
322.4276957722
 30
0.0
 11
-42.284985515
 21
322.4982798537
 31
0.0
  0
LINE
  5
398
330
277
100
AcDbEntity
  8
0
  6
Continuous
 62
     7
370
    25
100
AcDbLine
 10
307.7328711724
 20
313.063950098
 30
0.0
 11
51.7602163829
 21
165.2940818581
 31
0.0
  0
LINE
  5
399
330
277
100
AcDbEntity
  8
0
  6
Continuous
 62
     7
370
    25
100
AcDbLine
 10
307.7328711724
 20
-13.5523746563
 30
0.0
 11
307.7328711724
 21
313.063950098
 31
0.0
  0
LINE
  5
39A
330
277
100
AcDbEntity
  8
0
  6
Continuous
 62
     7
370
    25
100
AcDbLine
 10
45.9619407771
 20
-164.6695161546
 30
0.0
 11
307.7328711724
 21
-13.5523746563
 31
0.0
  0
LINE
  5
39B
330
277
100
AcDbEntity
  8
0
  6
Continuous
 62
     7
370
    25
100
AcDbLine
 10
51.7602163829
 20
165.2940818581
 30
0.0
 11
51.7602163829
 21
-161.3222428962
 31
0.0
  0
LINE
  5
39C
330
277
100
AcDbEntity
  8
0
  6
Continuous
 62
     7
370
    25
100
AcDbLine
 10
38.8908729653
 20
172.7233956757
 30
0.0
 11
51.7602163829
 21
165.2940818581
 31
0.0
  0
LINE
  5
39D
330
277
100
AcDbEntity
  8
0
  6
Continuous
 62
     7
370
    25
100
AcDbLine
 10
294.8635277548
 20
320.4932639156
 30
0.0
 11
38.8908729653
 21
172.7233956757
 31
0.0
  0
LINE
  5
39E
330
277
100
AcDbEntity
  8
0
  6
Continuous
 62
     7
370
    25
100
AcDbLine
 10
294.8635277548
 20
320.4932639156
 30
0.0
 11
307.7328711724
 21
313.063950098
 31
0.0
  0
LINE
  5
39F
330
277
100
AcDbEntity
  8
0
  6
Continuous
 62
     7
370
    25
100
AcDbLine
 10
38.8908729653
 20
172.7233956757
 30
0.0
 11
38.8908729653
 21
168.2324212103
 31
0.0
  0
LINE
  5
3A0
330
277
100
AcDbEntity
  8
0
  6
Continuous
 62
     7
370
    25
100
AcDbLine
 10
-279.4485999249
 20
352.0058871816
 30
0.0
 11
-285.459007565
 21
348.5361527064
 31
0.0
  0
LINE
  5
3A1
330
277
100
AcDbEntity
  8
0
  6
Continuous
 62
     7
370
    25
100
AcDbLine
 10
-279.4485999249
 20
352.0058871816
 30
0.0
 11
50.7702668892
 21
161.374593071
 31
0.0
  0
LINE
  5
3A2
330
277
100
AcDbEntity
  8
0
  6
Continuous
 62
     7
370
    25
100
AcDbLine
 10
50.7702668892
 20
161.374593071
 30
0.0
 11
44.7598592491
 21
157.9048585958
 31
0.0
  0
LINE
  5
3A3
330
277
100
AcDbEntity
  8
0
  6
Continuous
 62
     7
370
    25
100
AcDbLine
 10
-285.459007565
 20
340.3720715882
 30
0.0
 11
30.6177236254
 21
157.9048585958
 31
0.0
  0
LINE
  5
3A4
330
277
100
AcDbEntity
  8
0
  6
Continuous
 62
     7
370
    25
100
AcDbLine
 10
44.7598592491
 20
157.9048585958
 30
0.0
 11
44.7598592491
 21
95.3578324053
 31
0.0
  0
LINE
  5
3A5
330
277
100
AcDbEntity
  8
0
  6
Continuous
 62
     7
370
    25
100
AcDbLine
 10
30.6177236254
 20
95.3578324053
 30
0.0
 11
30.6177236254
 21
157.9048585958
 31
0.0
  0
LINE
  5
3A6
330
277
100
AcDbEntity
  8
0
  6
Continuous
 62
     7
370
    25
100
AcDbLine
 10
-285.459007565
 20
340.3720715882
 30
0.0
 11
-285.459007565
 21
277.8250453977
 31
0.0
  0
LINE
  5
3A7
330
277
100
AcDbEntity
  8
0
  6
Continuous
 62
     7
370
    25
100
AcDbLine
 10
30.6177236254
 20
95.3578324053
 30
0.0
 11
-285.459007565
 21
277.8250453977
 31
0.0
  0
LINE
  5
3A8
330
277
100
AcDbEntity
  8
0
  6
Continuous
 62
     7
370
    25
100
AcDbLine
 10
50.7702668892
 20
161.374593071
 30
0.0
 11
50.7702668892
 21
98.8275668806
 31
0.0
  0
LINE
  5
3A9
330
277
100
AcDbEntity
  8
0
  6
Continuous
 62
     7
370
    25
100
AcDbLine
 10
50.7702668892
 20
98.8275668806
 30
0.0
 11
44.7598592491
 21
95.3578324053
 31
0.0
  0
LINE
  5
3AA
330
277
100
AcDbEntity
  8
0
  6
Continuous
 62
     7
370
    25
100
AcDbLine
 10
-62.0839753882
 20
266.0938109556
 30
0.0
 11
-62.0839753882
 21
226.5239603945
 31
0.0
  0
LINE
  5
3AB
330
277
100
AcDbEntity
  8
0
  6
Continuous
 62
     7
370
    25
100
AcDbLine
 10
-62.0839753882
 20
266.0938109556
 30
0.0
 11
-50.7702668892
 21
272.6250758501
 31
0.0
  0
LINE
  5
3AC
330
277
100
AcDbEntity
  8
0
  6
Continuous
 62
     7
370
    25
100
AcDbLine
 10
-70.5796340763
 20
284.0487987199
 30
0.0
 11
-70.5692567624
 21
284.0547894157
 31
0.0
  0
LINE
  5
3AD
330
277
100
AcDbEntity
  8
0
  6
Continuous
 62
     7
370
    25
100
AcDbLine
 10
-70.5692567624
 20
284.0547894157
 30
0.0
 11
-51.5480622765
 21
273.0740875697
 31
0.0
  0
LINE
  5
3AE
330
277
100
AcDbEntity
  8
0
  6
Continuous
 62
     7
370
    25
100
AcDbLine
 10
-51.5480622765
 20
273.0740875697
 30
0.0
 11
-50.4874021047
 21
273.6863936536
 31
0.0
  0
LINE
  5
3AF
330
277
100
AcDbEntity
  8
0
  6
Continuous
 62
     7
370
    25
100
AcDbLine
 10
-50.4874021047
 20
273.6863936536
 30
0.0
 11
-37.0523732621
 21
265.9305165913
 31
0.0
  0
LINE
  5
3B0
330
277
100
AcDbEntity
  8
0
  6
Continuous
 62
     7
370
    25
100
AcDbLine
 10
-37.0523732621
 20
265.9305165913
 30
0.0
 11
-38.1130334339
 21
265.3182105074
 31
0.0
  0
LINE
  5
3B1
330
277
100
AcDbEntity
  8
0
  6
Continuous
 62
     7
370
    25
100
AcDbLine
 10
-15.4149278299
 20
252.2148730546
 30
0.0
 11
-50.7702668892
 21
272.6250758501
 31
0.0
  0
LINE
  5
3B2
330
277
100
AcDbEntity
  8
0
  6
Continuous
 62
     7
370
    25
100
AcDbLine
 10
-26.7286363289
 20
245.68360816
 30
0.0
 11
-79.1892596425
 21
275.9684813673
 31
0.0
  0
LINE
  5
3B3
330
277
100
AcDbEntity
  8
0
  6
Continuous
 62
     7
370
    25
100
AcDbLine
 10
-72.1181918306
 20
280.0505219264
 30
0.0
 11
-79.1892596425
 21
275.9684813673
 31
0.0
  0
LINE
  5
3B4
330
277
100
AcDbEntity
  8
0
  6
Continuous
 62
     7
370
    25
100
AcDbLine
 10
-37.0523732621
 20
265.9305165913
 30
0.0
 11
-37.0523732621
 21
264.7059044235
 31
0.0
  0
LINE
  5
3B5
330
277
100
AcDbEntity
  8
0
  6
Continuous
 62
     7
370
    25
100
AcDbLine
 10
-79.2975038932
 20
275.9025161992
 30
0.0
 11
-79.1892596425
 21
275.9684813673
 31
0.0
  0
LINE
  5
3B6
330
277
100
AcDbEntity
  8
0
  6
Continuous
 62
     7
370
    25
100
AcDbLine
 10
-81.8829652614
 20
274.4099611213
 30
0.0
 11
-81.8829652614
 21
237.95367396
 31
0.0
  0
LINE
  5
3B7
330
277
100
AcDbEntity
  8
0
  6
Continuous
 62
     7
370
    25
100
AcDbLine
 10
-26.7286363289
 20
245.68360816
 30
0.0
 11
-15.4149278299
 21
252.2148730546
 31
0.0
  0
LINE
  5
3B8
330
277
100
AcDbEntity
  8
0
  6
Continuous
 62
     7
370
    25
100
AcDbLine
 10
31.8198051534
 20
-164.6695161546
 30
0.0
 11
31.8198051534
 21
84.3754314705
 31
0.0
  0
LINE
  5
3B9
330
277
100
AcDbEntity
  8
0
  6
Continuous
 62
     7
370
    25
100
AcDbLine
 10
45.9619407771
 20
84.3754314705
 30
0.0
 11
45.9619407771
 21
-164.6695161546
 31
0.0
  0
LINE
  5
3BA
330
277
100
AcDbEntity
  8
0
  6
Continuous
 62
     7
370
    25
100
AcDbLine
 10
-67.1751442127
 20
141.5239992981
 30
0.0
 11
-58.2641161202
 21
146.668226318
 31
0.0
  0
LINE
  5
3BB
330
277
100
AcDbEntity
  8
0
  6
Continuous
 62
     7
370
    25
100
AcDbLine
 10
51.7602163829
 20
87.722704729
 30
0.0
 11
40.9251154152
 21
93.9776753768
 31
0.0
  0
LINE
  5
3BC
330
277
100
AcDbEntity
  8
0
  6
Continuous
 62
     7
370
    25
100
AcDbLine
 10
45.9619407771
 20
84.3754314705
 30
0.0
 11
51.7602163829
 21
87.722704729
 31
0.0
  0
LINE
  5
3BD
330
277
100
AcDbEntity
  8
0
  6
Continuous
 62
     7
370
    25
100
AcDbLine
 10
31.8198051534
 20
84.3754314705
 30
0.0
 11
-67.1751442127
 21
141.5239992981
 31
0.0
  0
LINE
  5
3BE
330
277
100
AcDbEntity
  8
0
  6
Continuous
 62
     7
370
    25
100
AcDbLine
 10
-284.256926037
 20
266.8426444629
 30
0.0
 11
-284.256926037
 21
17.7976968377
 31
0.0
  0
LINE
  5
3BF
330
277
100
AcDbEntity
  8
0
  6
Continuous
 62
     7
370
    25
100
AcDbLine
 10
-185.2619766709
 20
209.6940766353
 30
0.0
 11
-284.256926037
 21
266.8426444629
 31
0.0
  0
LINE
  5
3C0
330
277
100
AcDbEntity
  8
0
  6
Continuous
 62
     7
370
    25
100
AcDbLine
 10
-284.256926037
 20
17.7976968377
 30
0.0
 11
31.8198051534
 21
-164.6695161546
 31
0.0
  0
LINE
  5
3C1
330
277
100
AcDbEntity
  8
0
  6
Continuous
 62
     7
370
    25
100
AcDbLine
 10
-185.2619766709
 20
209.6940766353
 30
0.0
 11
-176.3509485783
 21
214.8383036552
 31
0.0
  0
LINE
  5
3C2
330
277
100
AcDbEntity
  8
0
  6
Continuous
 62
     7
370
    25
100
AcDbLine
 10
-284.256926037
 20
275.0067255811
 30
0.0
 11
-282.4169657563
 21
276.0689120419
 31
0.0
  0
LINE
  5
3C3
330
277
100
AcDbEntity
  8
0
  6
Continuous
 62
     8
370
    25
100
AcDbLine
 10
-18.3847763108
 20
336.2252317221
 30
0.0
 11
-18.3847763108
 21
337.0678633863
 31
0.0
  0
LINE
  5
3C4
330
277
100
AcDbEntity
  8
0
  6
Continuous
 62
     8
370
    25
100
AcDbLine
 10
-18.3847763108
 20
412.1077118685
 30
0.0
 11
-18.3847763108
 21
413.3066843641
 31
0.0
  0
LINE
  5
3C5
330
277
100
AcDbEntity
  8
0
  6
Continuous
 62
     8
370
    25
100
AcDbLine
 10
-19.657568517
 20
414.6948170143
 30
0.0
 11
-19.657568517
 21
415.0211413989
 31
0.0
  0
LINE
  5
3C6
330
277
100
AcDbEntity
  8
0
  6
Continuous
 62
     8
370
    25
100
AcDbLine
 10
22.343060696
 20
177.7852698953
 30
0.0
 11
29.0317841304
 21
181.6465877436
 31
0.0
  0
ARC
  5
3C7
330
277
100
AcDbEntity
  8
0
  6
Continuous
 62
     7
370
    25
100
AcDbCircle
 10
6.8998024451
 20
402.2577296981
 30
0.0
 40
4.112737295205805
100
AcDbArc
 50
168.742725351
 51
240.5710930714
  0
ARC
  5
3C8
330
277
100
AcDbEntity
  8
0
  6
Continuous
 62
     7
370
    25
100
AcDbCircle
 10
12.5270507549
 20
368.8312477515
 30
0.0
 40
4.112684626978734
100
AcDbArc
 50
179.4285269295
 51
251.252371445
  0
ARC
  5
3C9
330
277
100
AcDbEntity
  8
0
  6
Continuous
 62
     7
370
    25
100
AcDbCircle
 10
6.8998024451
 20
349.9991177375
 30
0.0
 40
4.11273729520491
100
AcDbArc
 50
168.742725351
 51
240.5710930714
  0
ARC
  5
3CA
330
277
100
AcDbEntity
  8
0
  6
Continuous
 62
     7
370
    25
100
AcDbCircle
 10
-43.8406204336
 20
403.9300837739
 30
0.0
 40
4.611065723735317
100
AcDbArc
 50
242.6096722366
 51
297.3903277634
  0
ARC
  5
3CB
330
277
100
AcDbEntity
  8
0
  6
Continuous
 62
     7
370
    25
100
AcDbCircle
 10
-43.8406204336
 20
326.8486311319
 30
0.0
 40
4.61106572373534
100
AcDbArc
 50
242.6096722366
 51
297.3903277634
  0
ARC
  5
3CC
330
277
100
AcDbEntity
  8
0
  6
Continuous
 62
     7
370
    25
100
AcDbCircle
 10
-43.8406204336
 20
402.2083711216
 30
0.0
 40
1.844426289493664
100
AcDbArc
 50
242.6096722366
 51
297.3903277634
  0
ARC
  5
3CD
330
277
100
AcDbEntity
  8
0
  6
Continuous
 62
     7
370
    25
100
AcDbCircle
 10
-28.6632097269
 20
369.9926420185
 30
0.0
 40
2.366830288459932
100
AcDbArc
 50
65.3810279525
 51
125.9294304765
  0
ARC
  5
3CE
330
277
100
AcDbEntity
  8
0
  6
Continuous
 62
     7
370
    25
100
AcDbCircle
 10
-19.8860654794
 20
414.4900729701
 30
0.0
 40
0.5781388569867634
100
AcDbArc
 50
0.2878271118
 51
66.7197732297
  0
ARC
  5
3CF
330
277
100
AcDbEntity
  8
0
  6
Continuous
 62
     7
370
    25
100
AcDbCircle
 10
-18.8495573912
 20
414.5312965318
 30
0.0
 40
1.309845950502997
100
AcDbArc
 50
290.7834207995
 51
69.2165792005
  0
ARC
  5
3D0
330
277
100
AcDbEntity
  8
0
  6
Continuous
 62
     7
370
    25
100
AcDbCircle
 10
-19.0074678419
 20
337.5995630205
 30
0.0
 40
1.508817835481395
100
AcDbArc
 50
294.3746582936
 51
354.3052007488
  0
ARC
  5
3D1
330
277
100
AcDbEntity
  8
0
  6
Continuous
 62
     7
370
    25
100
AcDbCircle
 10
37.6887914372
 20
171.5519694453
 30
0.0
 40
15.37021907911661
100
AcDbArc
 50
242.6096722366
 51
297.3903277634
  0
ARC
  5
3D2
330
277
100
AcDbEntity
  8
0
  6
Continuous
 62
     7
370
    25
100
AcDbCircle
 10
37.6887914372
 20
109.0049432549
 30
0.0
 40
15.37021907911706
100
AcDbArc
 50
242.6096722366
 51
297.3903277634
  0
ARC
  5
3D3
330
277
100
AcDbEntity
  8
0
  6
Continuous
 62
     7
370
    25
100
AcDbCircle
 10
-283.3833691282
 20
282.4061497258
 30
0.0
 40
5.029392784937457
100
AcDbArc
 50
185.6947992512
 51
245.6253417064
  0
ARC
  5
3D4
330
277
100
AcDbEntity
  8
0
  6
Continuous
 62
     7
370
    25
100
AcDbCircle
 10
-89.3111739912
 20
276.4502852894
 30
0.0
 40
2.491808154351501
100
AcDbArc
 50
305.3793155066
 51
5.9328648868
  0
ARC
  5
3D5
330
277
100
AcDbEntity
  8
0
  6
Continuous
 62
     7
370
    25
100
AcDbCircle
 10
81.7429384753
 20
187.6180650629
 30
0.0
 40
53.04832074382324
100
AcDbArc
 50
186.4632990022
 51
196.0858369662
  0
ARC
  5
3D6
330
277
100
AcDbEntity
  8
0
  6
Continuous
 62
     7
370
    25
100
AcDbCircle
 10
38.8908729653
 20
98.0225423201
 30
0.0
 40
15.37021907911736
100
AcDbArc
 50
242.6096722366
 51
297.3903277634
  0
ARC
  5
3D7
330
277
100
AcDbEntity
  8
0
  6
Continuous
 62
     7
370
    25
100
AcDbCircle
 10
38.8908729653
 20
-151.0224053051
 30
0.0
 40
15.37021907911731
100
AcDbArc
 50
242.6096722366
 51
297.3903277634
  0
ARC
  5
3D8
330
277
100
AcDbEntity
  8
0
  6
Continuous
 62
     7
370
    25
100
AcDbCircle
 10
-282.1812876002
 20
22.3788011658
 30
0.0
 40
5.029392784937449
100
AcDbArc
 50
185.6947992512
 51
245.6253417064
  0
VIEWPORT
  5
3DF
330
277
100
AcDbEntity
  8
0
100
AcDbViewport
 10
0.0
 20
0.0
 30
0.0
 40
205.6
 41
156.0
 68
     1
 69
     1
 12
0.0
 22
200.0
 13
0.0
 23
0.0
 14
10.0
 24
10.0
 15
10.0
 25
10.0
 16
0.0
 26
0.0
 36
1.0
 17
0.0
 27
0.0
 37
0.0
 42
50.0
 43
0.0
 44
0.0
 45
408.0
 50
0.0
 51
0.0
 72
   100
 90
   557152
  1

281
     0
 71
     1
 74
     0
110
0.0
120
0.0
130
0.0
111
1.0
121
0.0
131
0.0
112
0.0
122
1.0
132
0.0
 79
     0
146
0.0
  0
ENDBLK
  5
27A
330
277
100
AcDbEntity
  8
0
100
AcDbBlockEnd
  0
ENDSEC
  0
SECTION
  2
ENTITIES
  0
LINE
  5
95
330
1F
100
AcDbEntity
  8
0
  6
Continuous
 62
     7
370
    25
100
AcDbLine
 10
-216.0
 20
400.0
 30
0.0
 11
-234.2
 21
400.0
 31
0.0
  0
LINE
  5
96
330
1F
100
AcDbEntity
  8
0
  6
Continuous
 62
     7
370
    25
100
AcDbLine
 10
-216.0
 20
400.0
 30
0.0
 11
-216.0
 21
394.5
 31
0.0
  0
LINE
  5
97
330
1F
100
AcDbEntity
  8
0
  6
Continuous
 62
     7
370
    25
100
AcDbLine
 10
-216.0
 20
317.9
 30
0.0
 11
-216.0
 21
305.0
 31
0.0
  0
LINE
  5
98
330
1F
100
AcDbEntity
  8
0
  6
Continuous
 62
     7
370
    25
100
AcDbLine
 10
-234.2
 20
400.0
 30
0.0
 11
-234.2
 21
0.0
 31
0.0
  0
LINE
  5
99
330
1F
100
AcDbEntity
  8
0
  6
Continuous
 62
     7
370
    25
100
AcDbLine
 10
216.0
 20
400.0
 30
0.0
 11
216.0
 21
394.5
 31
0.0
  0
LINE
  5
9A
330
1F
100
AcDbEntity
  8
0
  6
Continuous
 62
     7
370
    25
100
AcDbLine
 10
216.0
 20
305.0
 30
0.0
 11
216.0
 21
317.9
 31
0.0
  0
LINE
  5
9B
330
1F
100
AcDbEntity
  8
0
  6
Continuous
 62
     7
370
    25
100
AcDbLine
 10
216.0
 20
400.0
 30
0.0
 11
234.2
 21
400.0
 31
0.0
  0
LINE
  5
9C
330
1F
100
AcDbEntity
  8
0
  6
Continuous
 62
     7
370
    25
100
AcDbLine
 10
234.2
 20
400.0
 30
0.0
 11
234.2
 21
0.0
 31
0.0
  0
LINE
  5
9D
330
1F
100
AcDbEntity
  8
0
  6
Continuous
 62
     7
370
    25
100
AcDbLine
 10
-224.2
 20
394.5
 30
0.0
 11
-224.2
 21
317.9
 31
0.0
  0
LINE
  5
9E
330
1F
100
AcDbEntity
  8
0
  6
Continuous
 62
     7
370
    25
100
AcDbLine
 10
232.8
 20
394.5
 30
0.0
 11
232.8
 21
317.9
 31
0.0
  0
LINE
  5
9F
330
1F
100
AcDbEntity
  8
0
  6
Continuous
 62
     7
370
    25
100
AcDbLine
 10
222.8
 20
317.9
 30
0.0
 11
222.8
 21
394.5
 31
0.0
  0
LINE
  5
A0
330
1F
100
AcDbEntity
  8
0
  6
Continuous
 62
     7
370
    25
100
AcDbLine
 10
232.8
 20
317.9
 30
0.0
 11
-234.2
 21
317.9
 31
0.0
  0
LINE
  5
A1
330
1F
100
AcDbEntity
  8
0
  6
Continuous
 62
     7
370
    25
100
AcDbLine
 10
-234.2
 20
394.5
 30
0.0
 11
232.8
 21
394.5
 31
0.0
  0
LINE
  5
A2
330
1F
100
AcDbEntity
  8
0
  6
Continuous
 62
     7
370
    25
100
AcDbLine
 10
-222.8
 20
305.0
 30
0.0
 11
-222.8
 21
0.0
 31
0.0
  0
LINE
  5
A3
330
1F
100
AcDbEntity
  8
0
  6
Continuous
 62
     7
370
    25
100
AcDbLine
 10
-232.8
 20
0.0
 30
0.0
 11
-232.8
 21
305.0
 31
0.0
  0
LINE
  5
A4
330
1F
100
AcDbEntity
  8
0
  6
Continuous
 62
     7
370
    25
100
AcDbLine
 10
-82.8
 20
305.0
 30
0.0
 11
-232.8
 21
305.0
 31
0.0
  0
LINE
  5
A5
330
1F
100
AcDbEntity
  8
0
  6
Continuous
 62
     7
370
    25
100
AcDbLine
 10
224.2
 20
0.0
 30
0.0
 11
224.2
 21
305.0
 31
0.0
  0
LINE
  5
A6
330
1F
100
AcDbEntity
  8
0
  6
Continuous
 62
     7
370
    25
100
AcDbLine
 10
234.2
 20
305.0
 30
0.0
 11
84.2
 21
305.0
 31
0.0
  0
LINE
  5
A7
330
1F
100
AcDbEntity
  8
0
  6
Continuous
 62
     7
370
    25
100
AcDbLine
 10
-234.2
 20
0.0
 30
0.0
 11
234.2
 21
0.0
 31
0.0
  0
ARC
  5
A8
330
1F
100
AcDbEntity
  8
0
  6
Continuous
 62
     7
370
    25
100
AcDbCircle
 10
0.7
 20
469.30625
 30
0.0
 40
184.3062499999993
100
AcDbArc
 50
243.0604435409
 51
296.9395564591
  0
LINE
  5
118
330
1B
100
AcDbEntity
 67
     1
  8
0
  6
Continuous
 62
     7
370
    25
100
AcDbLine
 10
211.0
 20
212.0
 30
0.0
 11
211.0
 21
310.0
 31
0.0
  0
LINE
  5
119
330
1B
100
AcDbEntity
 67
     1
  8
0
  6
Continuous
 62
     7
370
    25
100
AcDbLine
 10
178.1
 20
232.7316441283
 30
0.0
 11
194.1
 21
232.7316441283
 31
0.0
  0
LINE
  5
11A
330
1B
100
AcDbEntity
 67
     1
  8
0
  6
Continuous
 62
     7
370
    25
100
AcDbLine
 10
194.1
 20
226.7316441283
 30
0.0
 11
178.1
 21
226.7316441283
 31
0.0
  0
LINE
  5
11B
330
1B
100
AcDbEntity
 67
     1
  8
0
  6
Continuous
 62
     7
370
    25
100
AcDbLine
 10
183.1
 20
256.7316441283
 30
0.0
 11
183.1
 21
266.7316441283
 31
0.0
  0
LINE
  5
11C
330
1B
100
AcDbEntity
 67
     1
  8
0
  6
Continuous
 62
     7
370
    25
100
AcDbLine
 10
189.1
 20
266.7316441283
 30
0.0
 11
189.1
 21
256.7316441283
 31
0.0
  0
LINE
  5
11D
330
1B
100
AcDbEntity
 67
     1
  8
0
  6
Continuous
 62
     7
370
    25
100
AcDbLine
 10
178.1
 20
296.7316441283
 30
0.0
 11
194.1
 21
296.7316441283
 31
0.0
  0
LINE
  5
11E
330
1B
100
AcDbEntity
 67
     1
  8
0
  6
Continuous
 62
     7
370
    25
100
AcDbLine
 10
194.1
 20
290.7316441283
 30
0.0
 11
178.1
 21
290.7316441283
 31
0.0
  0
LINE
  5
11F
330
1B
100
AcDbEntity
 67
     1
  8
0
  6
Continuous
 62
     7
370
    25
100
AcDbLine
 10
163.1
 20
306.7316441283
 30
0.0
 11
211.0
 21
306.7316441283
 31
0.0
  0
LINE
  5
120
330
1B
100
AcDbEntity
 67
     1
  8
0
  6
Continuous
 62
     7
370
    25
100
AcDbLine
 10
163.1
 20
216.7316441283
 30
0.0
 11
163.1
 21
306.7316441283
 31
0.0
  0
LINE
  5
121
330
1B
100
AcDbEntity
 67
     1
  8
0
  6
Continuous
 62
     7
370
    25
100
AcDbLine
 10
211.0
 20
216.7316441283
 30
0.0
 11
163.1
 21
216.7316441283
 31
0.0
  0
LINE
  5
122
330
1B
100
AcDbEntity
 67
     1
  8
0
  6
Continuous
 62
     7
370
    25
100
AcDbLine
 10
-205.7
 20
47.5
 30
0.0
 11
204.3
 21
47.5
 31
0.0
  0
LINE
  5
123
330
1B
100
AcDbEntity
 67
     1
  8
0
  6
Continuous
 62
     7
370
    25
100
AcDbLine
 10
204.3
 20
47.5
 30
0.0
 11
204.3
 21
31.5
 31
0.0
  0
LINE
  5
124
330
1B
100
AcDbEntity
 67
     1
  8
0
  6
Continuous
 62
     7
370
    25
100
AcDbLine
 10
-205.7
 20
31.5
 30
0.0
 11
204.3
 21
31.5
 31
0.0
  0
LINE
  5
125
330
1B
100
AcDbEntity
 67
     1
  8
0
  6
Continuous
 62
     7
370
    25
100
AcDbLine
 10
-205.7
 20
47.5
 30
0.0
 11
-205.7
 21
31.5
 31
0.0
  0
LINE
  5
126
330
1B
100
AcDbEntity
 67
     1
  8
0
  6
Continuous
 62
     7
370
    25
100
AcDbLine
 10
-234.2
 20
0.0
 30
0.0
 11
234.2
 21
0.0
 31
0.0
  0
LINE
  5
127
330
1B
100
AcDbEntity
 67
     1
  8
0
  6
Continuous
 62
     7
370
    25
100
AcDbLine
 10
216.0
 20
0.0
 30
0.0
 11
216.0
 21
400.0
 31
0.0
  0
LINE
  5
128
330
1B
100
AcDbEntity
 67
     1
  8
0
  6
Continuous
 62
     7
370
    25
100
AcDbLine
 10
216.0
 20
400.0
 30
0.0
 11
234.2
 21
400.0
 31
0.0
  0
LINE
  5
129
330
1B
100
AcDbEntity
 67
     1
  8
0
  6
Continuous
 62
     7
370
    25
100
AcDbLine
 10
234.2
 20
0.0
 30
0.0
 11
234.2
 21
400.0
 31
0.0
  0
LINE
  5
12A
330
1B
100
AcDbEntity
 67
     1
  8
0
  6
Continuous
 62
     7
370
    25
100
AcDbLine
 10
211.0
 20
308.2
 30
0.0
 11
216.0
 21
308.2
 31
0.0
  0
LINE
  5
12B
330
1B
100
AcDbEntity
 67
     1
  8
0
  6
Continuous
 62
     7
370
    25
100
AcDbLine
 10
216.0
 20
213.8
 30
0.0
 11
211.0
 21
213.8
 31
0.0
  0
LINE
  5
12C
330
1B
100
AcDbEntity
 67
     1
  8
0
  6
Continuous
 62
     7
370
    25
100
AcDbLine
 10
214.0
 20
308.2
 30
0.0
 11
214.0
 21
213.8
 31
0.0
  0
LINE
  5
12D
330
1B
100
AcDbEntity
 67
     1
  8
0
  6
Continuous
 62
     7
370
    25
100
AcDbLine
 10
212.8
 20
310.0
 30
0.0
 11
211.0
 21
310.0
 31
0.0
  0
LINE
  5
12E
330
1B
100
AcDbEntity
 67
     1
  8
0
  6
Continuous
 62
     7
370
    25
100
AcDbLine
 10
212.8
 20
310.0
 30
0.0
 11
212.8
 21
308.2
 31
0.0
  0
LINE
  5
12F
330
1B
100
AcDbEntity
 67
     1
  8
0
  6
Continuous
 62
     7
370
    25
100
AcDbLine
 10
212.8
 20
212.0
 30
0.0
 11
211.0
 21
212.0
 31
0.0
  0
LINE
  5
130
330
1B
100
AcDbEntity
 67
     1
  8
0
  6
Continuous
 62
     7
370
    25
100
AcDbLine
 10
212.8
 20
213.8
 30
0.0
 11
212.8
 21
212.0
 31
0.0
  0
LINE
  5
131
330
1B
100
AcDbEntity
 67
     1
  8
0
  6
Continuous
 62
     7
370
    25
100
AcDbLine
 10
-211.0
 20
310.0
 30
0.0
 11
-211.0
 21
212.0
 31
0.0
  0
LINE
  5
132
330
1B
100
AcDbEntity
 67
     1
  8
0
  6
Continuous
 62
     7
370
    25
100
AcDbLine
 10
-211.0
 20
213.8
 30
0.0
 11
-216.0
 21
213.8
 31
0.0
  0
LINE
  5
133
330
1B
100
AcDbEntity
 67
     1
  8
0
  6
Continuous
 62
     7
370
    25
100
AcDbLine
 10
-214.0
 20
213.8
 30
0.0
 11
-214.0
 21
308.2
 31
0.0
  0
LINE
  5
134
330
1B
100
AcDbEntity
 67
     1
  8
0
  6
Continuous
 62
     7
370
    25
100
AcDbLine
 10
-216.0
 20
308.2
 30
0.0
 11
-211.0
 21
308.2
 31
0.0
  0
LINE
  5
135
330
1B
100
AcDbEntity
 67
     1
  8
0
  6
Continuous
 62
     7
370
    25
100
AcDbLine
 10
-212.8
 20
310.0
 30
0.0
 11
-211.0
 21
310.0
 31
0.0
  0
LINE
  5
136
330
1B
100
AcDbEntity
 67
     1
  8
0
  6
Continuous
 62
     7
370
    25
100
AcDbLine
 10
-212.8
 20
308.2
 30
0.0
 11
-212.8
 21
310.0
 31
0.0
  0
LINE
  5
137
330
1B
100
AcDbEntity
 67
     1
  8
0
  6
Continuous
 62
     7
370
    25
100
AcDbLine
 10
-212.8
 20
212.0
 30
0.0
 11
-211.0
 21
212.0
 31
0.0
  0
LINE
  5
138
330
1B
100
AcDbEntity
 67
     1
  8
0
  6
Continuous
 62
     7
370
    25
100
AcDbLine
 10
-212.8
 20
212.0
 30
0.0
 11
-212.8
 21
213.8
 31
0.0
  0
LINE
  5
139
330
1B
100
AcDbEntity
 67
     1
  8
0
  6
Continuous
 62
     7
370
    25
100
AcDbLine
 10
-216.0
 20
18.2
 30
0.0
 11
216.0
 21
18.2
 31
0.0
  0
LINE
  5
13A
330
1B
100
AcDbEntity
 67
     1
  8
0
  6
Continuous
 62
     7
370
    25
100
AcDbLine
 10
-216.0
 20
400.0
 30
0.0
 11
-234.2
 21
400.0
 31
0.0
  0
LINE
  5
13B
330
1B
100
AcDbEntity
 67
     1
  8
0
  6
Continuous
 62
     7
370
    25
100
AcDbLine
 10
-216.0
 20
0.0
 30
0.0
 11
-216.0
 21
400.0
 31
0.0
  0
LINE
  5
13C
330
1B
100
AcDbEntity
 67
     1
  8
0
  6
Continuous
 62
     7
370
    25
100
AcDbLine
 10
-234.2
 20
0.0
 30
0.0
 11
-234.2
 21
400.0
 31
0.0
  0
LINE
  5
13D
330
1B
100
AcDbEntity
 67
     1
  8
0
  6
Continuous
 62
     7
370
    25
100
AcDbLine
 10
216.0
 20
394.5
 30
0.0
 11
-216.0
 21
394.5
 31
0.0
  0
LINE
  5
13E
330
1B
100
AcDbEntity
 67
     1
  8
0
  6
Continuous
 62
     7
370
    25
100
AcDbLine
 10
-163.1
 20
306.7316441283
 30
0.0
 11
-163.1
 21
216.7316441283
 31
0.0
  0
LINE
  5
13F
330
1B
100
AcDbEntity
 67
     1
  8
0
  6
Continuous
 62
     7
370
    25
100
AcDbLine
 10
-163.1
 20
216.7316441283
 30
0.0
 11
-211.0
 21
216.7316441283
 31
0.0
  0
LINE
  5
140
330
1B
100
AcDbEntity
 67
     1
  8
0
  6
Continuous
 62
     7
370
    25
100
AcDbLine
 10
-178.1
 20
290.7316441283
 30
0.0
 11
-194.1
 21
290.7316441283
 31
0.0
  0
LINE
  5
141
330
1B
100
AcDbEntity
 67
     1
  8
0
  6
Continuous
 62
     7
370
    25
100
AcDbLine
 10
-194.1
 20
296.7316441283
 30
0.0
 11
-178.1
 21
296.7316441283
 31
0.0
  0
LINE
  5
142
330
1B
100
AcDbEntity
 67
     1
  8
0
  6
Continuous
 62
     7
370
    25
100
AcDbLine
 10
-183.1
 20
266.7316441283
 30
0.0
 11
-183.1
 21
256.7316441283
 31
0.0
  0
LINE
  5
143
330
1B
100
AcDbEntity
 67
     1
  8
0
  6
Continuous
 62
     7
370
    25
100
AcDbLine
 10
-189.1
 20
256.7316441283
 30
0.0
 11
-189.1
 21
266.7316441283
 31
0.0
  0
LINE
  5
144
330
1B
100
AcDbEntity
 67
     1
  8
0
  6
Continuous
 62
     7
370
    25
100
AcDbLine
 10
-178.1
 20
226.7316441283
 30
0.0
 11
-194.1
 21
226.7316441283
 31
0.0
  0
LINE
  5
145
330
1B
100
AcDbEntity
 67
     1
  8
0
  6
Continuous
 62
     7
370
    25
100
AcDbLine
 10
-194.1
 20
232.7316441283
 30
0.0
 11
-178.1
 21
232.7316441283
 31
0.0
  0
LINE
  5
146
330
1B
100
AcDbEntity
 67
     1
  8
0
  6
Continuous
 62
     7
370
    25
100
AcDbLine
 10
-211.0
 20
306.7316441283
 30
0.0
 11
-163.1
 21
306.7316441283
 31
0.0
  0
LINE
  5
147
330
1B
100
AcDbEntity
 67
     1
  8
0
  6
Continuous
 62
     7
370
    25
100
AcDbLine
 10
-173.2999687854
 20
199.0
 30
0.0
 11
-173.2999687854
 21
49.0
 31
0.0
  0
LINE
  5
148
330
1B
100
AcDbEntity
 67
     1
  8
0
  6
Continuous
 62
     7
370
    25
100
AcDbLine
 10
-173.2999687854
 20
49.0
 30
0.0
 11
-154.2999687854
 21
49.0
 31
0.0
  0
LINE
  5
149
330
1B
100
AcDbEntity
 67
     1
  8
0
  6
Continuous
 62
     7
370
    25
100
AcDbLine
 10
-154.2999687854
 20
199.0
 30
0.0
 11
-154.2999687854
 21
49.0
 31
0.0
  0
LINE
  5
14A
330
1B
100
AcDbEntity
 67
     1
  8
0
  6
Continuous
 62
     7
370
    25
100
AcDbLine
 10
-200.2
 20
199.0
 30
0.0
 11
-122.2
 21
199.0
 31
0.0
  0
LINE
  5
14B
330
1B
100
AcDbEntity
 67
     1
  8
0
  6
Continuous
 62
     7
370
    25
100
AcDbLine
 10
-205.7
 20
33.0
 30
0.0
 11
-207.2
 21
33.0
 31
0.0
  0
LINE
  5
14C
330
1B
100
AcDbEntity
 67
     1
  8
0
  6
Continuous
 62
     7
370
    25
100
AcDbLine
 10
-207.2
 20
33.0
 30
0.0
 11
-207.2
 21
116.0
 31
0.0
  0
LINE
  5
14D
330
1B
100
AcDbEntity
 67
     1
  8
0
  6
Continuous
 62
     7
370
    25
100
AcDbLine
 10
-207.2
 20
116.0
 30
0.0
 11
-200.2
 21
116.0
 31
0.0
  0
LINE
  5
14E
330
1B
100
AcDbEntity
 67
     1
  8
0
  6
Continuous
 62
     7
370
    25
100
AcDbLine
 10
-200.2
 20
199.0
 30
0.0
 11
-200.2
 21
116.0
 31
0.0
  0
LINE
  5
14F
330
1B
100
AcDbEntity
 67
     1
  8
0
  6
Continuous
 62
     7
370
    25
100
AcDbLine
 10
198.8
 20
199.0
 30
0.0
 11
120.8
 21
199.0
 31
0.0
  0
LINE
  5
150
330
1B
100
AcDbEntity
 67
     1
  8
0
  6
Continuous
 62
     7
370
    25
100
AcDbLine
 10
152.8999687854
 20
199.0
 30
0.0
 11
152.8999687854
 21
49.0
 31
0.0
  0
LINE
  5
151
330
1B
100
AcDbEntity
 67
     1
  8
0
  6
Continuous
 62
     7
370
    25
100
AcDbLine
 10
171.8999687854
 20
49.0
 30
0.0
 11
152.8999687854
 21
49.0
 31
0.0
  0
LINE
  5
152
330
1B
100
AcDbEntity
 67
     1
  8
0
  6
Continuous
 62
     7
370
    25
100
AcDbLine
 10
171.8999687854
 20
199.0
 30
0.0
 11
171.8999687854
 21
49.0
 31
0.0
  0
LINE
  5
153
330
1B
100
AcDbEntity
 67
     1
  8
0
  6
Continuous
 62
     7
370
    25
100
AcDbLine
 10
198.8
 20
199.0
 30
0.0
 11
198.8
 21
116.0
 31
0.0
  0
LINE
  5
154
330
1B
100
AcDbEntity
 67
     1
  8
0
  6
Continuous
 62
     7
370
    25
100
AcDbLine
 10
205.8
 20
116.0
 30
0.0
 11
198.8
 21
116.0
 31
0.0
  0
LINE
  5
155
330
1B
100
AcDbEntity
 67
     1
  8
0
  6
Continuous
 62
     7
370
    25
100
AcDbLine
 10
204.3
 20
33.0
 30
0.0
 11
205.8
 21
33.0
 31
0.0
  0
LINE
  5
156
330
1B
100
AcDbEntity
 67
     1
  8
0
  6
Continuous
 62
     7
370
    25
100
AcDbLine
 10
205.8
 20
33.0
 30
0.0
 11
205.8
 21
116.0
 31
0.0
  0
LINE
  5
157
330
1B
100
AcDbEntity
 67
     1
  8
0
  6
Continuous
 62
     7
370
    25
100
AcDbLine
 10
-172.2
 20
47.5
 30
0.0
 11
-172.2
 21
49.0
 31
0.0
  0
LINE
  5
158
330
1B
100
AcDbEntity
 67
     1
  8
0
  6
Continuous
 62
     7
370
    25
100
AcDbLine
 10
-19.3428571429
 20
109.0
 30
0.0
 11
17.9428571429
 21
109.0
 31
0.0
  0
LINE
  5
159
330
1B
100
AcDbEntity
 67
     1
  8
0
  6
Continuous
 62
     7
370
    25
100
AcDbLine
 10
170.8
 20
49.0
 30
0.0
 11
170.8
 21
47.5
 31
0.0
  0
LINE
  5
15A
330
1B
100
AcDbEntity
 67
     1
  8
0
  6
Continuous
 62
     7
370
    25
100
AcDbLine
 10
163.1
 20
284.0
 30
0.0
 11
-163.1
 21
284.0
 31
0.0
  0
LINE
  5
15B
330
1B
100
AcDbEntity
 67
     1
  8
0
  6
Continuous
 62
     7
370
    25
100
AcDbLine
 10
-216.0
 20
344.0
 30
0.0
 11
216.0
 21
344.0
 31
0.0
  0
ARC
  5
15C
330
1B
100
AcDbEntity
 67
     1
  8
0
  6
Continuous
 62
     7
370
    25
100
AcDbCircle
 10
178.1
 20
229.7316441283
 30
0.0
 40
3.000000000000057
100
AcDbArc
 50
90.0
 51
270.0
  0
ARC
  5
15D
330
1B
100
AcDbEntity
 67
     1
  8
0
  6
Continuous
 62
     7
370
    25
100
AcDbCircle
 10
194.1
 20
229.7316441283
 30
0.0
 40
3.000000000000057
100
AcDbArc
 50
270.0
 51
90.0
  0
ARC
  5
15E
330
1B
100
AcDbEntity
 67
     1
  8
0
  6
Continuous
 62
     7
370
    25
100
AcDbCircle
 10
186.1
 20
256.7316441283
 30
0.0
 40
3.000000000000028
100
AcDbArc
 50
180.0
 51
0.0
  0
ARC
  5
15F
330
1B
100
AcDbEntity
 67
     1
  8
0
  6
Continuous
 62
     7
370
    25
100
AcDbCircle
 10
186.1
 20
266.7316441283
 30
0.0
 40
3.000000000000028
100
AcDbArc
 50
0.0
 51
180.0
  0
ARC
  5
160
330
1B
100
AcDbEntity
 67
     1
  8
0
  6
Continuous
 62
     7
370
    25
100
AcDbCircle
 10
178.1
 20
293.7316441283
 30
0.0
 40
3.0
100
AcDbArc
 50
90.0
 51
270.0
  0
ARC
  5
161
330
1B
100
AcDbEntity
 67
     1
  8
0
  6
Continuous
 62
     7
370
    25
100
AcDbCircle
 10
194.1
 20
293.7316441283
 30
0.0
 40
3.0
100
AcDbArc
 50
270.0
 51
90.0
  0
ARC
  5
162
330
1B
100
AcDbEntity
 67
     1
  8
0
  6
Continuous
 62
     7
370
    25
100
AcDbCircle
 10
-178.1
 20
293.7316441283
 30
0.0
 40
3.0
100
AcDbArc
 50
270.0
 51
90.0
  0
ARC
  5
163
330
1B
100
AcDbEntity
 67
     1
  8
0
  6
Continuous
 62
     7
370
    25
100
AcDbCircle
 10
-186.1
 20
266.7316441283
 30
0.0
 40
3.0
100
AcDbArc
 50
0.0
 51
180.0
  0
ARC
  5
164
330
1B
100
AcDbEntity
 67
     1
  8
0
  6
Continuous
 62
     7
370
    25
100
AcDbCircle
 10
-186.1
 20
256.7316441283
 30
0.0
 40
3.0
100
AcDbArc
 50
180.0
 51
0.0
  0
ARC
  5
165
330
1B
100
AcDbEntity
 67
     1
  8
0
  6
Continuous
 62
     7
370
    25
100
AcDbCircle
 10
-178.1
 20
229.7316441283
 30
0.0
 40
3.000000000000057
100
AcDbArc
 50
270.0
 51
90.0
  0
ARC
  5
166
330
1B
100
AcDbEntity
 67
     1
  8
0
  6
Continuous
 62
     7
370
    25
100
AcDbCircle
 10
-194.1
 20
229.7316441283
 30
0.0
 40
3.000000000000057
100
AcDbArc
 50
90.0
 51
270.0
  0
ARC
  5
167
330
1B
100
AcDbEntity
 67
     1
  8
0
  6
Continuous
 62
     7
370
    25
100
AcDbCircle
 10
-194.1
 20
293.7316441283
 30
0.0
 40
3.0
100
AcDbArc
 50
90.0
 51
270.0
  0
ARC
  5
168
330
1B
100
AcDbEntity
 67
     1
  8
0
  6
Continuous
 62
     7
370
    25
100
AcDbCircle
 10
-174.2
 20
49.5
 30
0.0
 40
1.999999999999963
100
AcDbArc
 50
270.0
 51
345.5224878141
  0
ARC
  5
169
330
1B
100
AcDbEntity
 67
     1
  8
0
  6
Continuous
 62
     7
370
    25
100
AcDbCircle
 10
-202.2
 20
204.5
 30
0.0
 40
8.00000000000004
100
AcDbArc
 50
316.5674634422
 51
284.4775121859
  0
ARC
  5
16A
330
1B
100
AcDbEntity
 67
     1
  8
0
  6
Continuous
 62
     7
370
    25
100
AcDbCircle
 10
172.8
 20
49.5
 30
0.0
 40
2.000000000000021
100
AcDbArc
 50
194.4775121859
 51
270.0
  0
ARC
  5
16B
330
1B
100
AcDbEntity
 67
     1
  8
0
  6
Continuous
 62
     7
370
    25
100
AcDbCircle
 10
200.8
 20
204.5
 30
0.0
 40
8.000000000000014
100
AcDbArc
 50
255.5224878141
 51
223.4325365578
  0
ARC
  5
16C
330
1B
100
AcDbEntity
 67
     1
  8
0
  6
Continuous
 62
     7
370
    25
100
AcDbCircle
 10
-19.3428571429
 20
149.3571428571
 30
0.0
 40
40.3571428571428
100
AcDbArc
 50
187.6281496686
 51
270.0
  0
ARC
  5
16D
330
1B
100
AcDbEntity
 67
     1
  8
0
  6
Continuous
 62
     7
370
    25
100
AcDbCircle
 10
17.9428571429
 20
149.3571428571
 30
0.0
 40
40.357142857143
100
AcDbArc
 50
270.0
 51
352.3718503314
  0
ARC
  5
16E
330
1B
100
AcDbEntity
 67
     1
  8
0
  6
Continuous
 62
     7
370
    25
100
AcDbCircle
 10
-122.2
 20
135.5816326531
 30
0.0
 40
63.41836734693871
100
AcDbArc
 50
7.6281496686
 51
90.0
  0
ARC
  5
16F
330
1B
100
AcDbEntity
 67
     1
  8
0
  6
Continuous
 62
     7
370
    25
100
AcDbCircle
 10
120.8
 20
135.5816326531
 30
0.0
 40
63.41836734693888
100
AcDbArc
 50
90.0
 51
172.3718503314
  0
VIEWPORT
  5
3D9
330
1B
100
AcDbEntity
 67
     1
  8
0
100
AcDbViewport
 10
0.0
 20
0.0
 30
0.0
 40
205.6
 41
156.0
 68
     1
 69
     1
 12
0.0
 22
200.0
 13
0.0
 23
0.0
 14
10.0
 24
10.0
 15
10.0
 25
10.0
 16
0.0
 26
0.0
 36
1.0
 17
0.0
 27
0.0
 37
0.0
 42
50.0
 43
0.0
 44
0.0
 45
408.0
 50
0.0
 51
0.0
 72
   100
 90
   557152
  1

281
     0
 71
     1
 74
     0
110
0.0
120
0.0
130
0.0
111
1.0
121
0.0
131
0.0
112
0.0
122
1.0
132
0.0
 79
     0
146
0.0
  0
ENDSEC
  0
SECTION
  2
OBJECTS
  0
DICTIONARY
  5
C
330
0
100
AcDbDictionary
281
     1
  3
ACAD_GROUP
350
D
  3
ACAD_LAYOUT
350
1A
  3
ACAD_MLINESTYLE
350
17
  3
ACAD_PLOTSETTINGS
350
19
  3
ACAD_PLOTSTYLENAME
350
E
  3
ACAD_SCALELIST
350
47
  0
DICTIONARY
  5
D
102
{ACAD_REACTORS
330
C
102
}
330
C
100
AcDbDictionary
281
     1
  0
DICTIONARY
  5
1A
102
{ACAD_REACTORS
330
C
102
}
330
C
100
AcDbDictionary
281
     1
  3
_Back
350
1E
  3
_Isometric
350
278
  3
_Left
350
26
  3
_Top
350
18D
  3
Model
350
22
  0
DICTIONARY
  5
17
102
{ACAD_REACTORS
330
C
102
}
330
C
100
AcDbDictionary
281
     1
  3
Standard
350
18
  0
DICTIONARY
  5
19
102
{ACAD_REACTORS
330
C
102
}
330
C
100
AcDbDictionary
281
     1
  0
ACDBDICTIONARYWDFLT
  5
E
102
{ACAD_REACTORS
330
C
102
}
330
C
100
AcDbDictionary
281
     1
  3
Normal
350
F
100
AcDbDictionaryWithDefault
340
F
  0
DICTIONARY
  5
47
102
{ACAD_REACTORS
330
C
102
}
330
C
100
AcDbDictionary
281
     1
  3
A0
350
48
  3
A1
350
49
  3
A2
350
4A
  3
A3
350
4B
  3
A4
350
4C
  3
A5
350
4D
  3
A6
350
4E
  3
A7
350
4F
  3
A8
350
50
  3
A9
350
51
  3
B0
350
52
  3
B1
350
53
  3
B2
350
54
  3
B3
350
55
  3
B4
350
56
  3
B5
350
57
  3
B6
350
58
  3
B7
350
59
  3
B8
350
5A
  3
B9
350
5B
  3
C0
350
5C
  3
C1
350
5D
  3
C2
350
5E
  3
C3
350
5F
  3
C4
350
60
  3
C5
350
61
  3
C6
350
62
  3
C7
350
63
  3
C8
350
64
  3
C9
350
65
  3
D0
350
66
  3
D1
350
67
  3
D2
350
68
  0
LAYOUT
  5
1E
102
{ACAD_REACTORS
330
1A
102
}
330
1A
100
AcDbPlotSettings
  1

  2
none_device
  4
ISO_A4_(210.00_x_297.00_MM)
  6

 40
7.5
 41
20.0
 42
7.5
 43
20.0
 44
210.0
 45
297.0
 46
0.0
 47
0.0
 48
0.0
 49
0.0
140
0.0
141
0.0
142
1.0
143
2.0512820513
 70
   688
 72
     1
 73
     1
 74
     1
  7

 75
     0
147
0.4875
148
234.2
149
0.0
100
AcDbLayout
  1
_Back
 70
     1
 71
     1
 10
-275.2256410256
 20
-15.3846153846
 11
334.0051282051
 21
415.3846153846
 12
0.0
 22
0.0
 32
0.0
 14
-234.2
 24
0.0
 34
0.0
 15
234.2
 25
400.0
 35
0.0
146
0.0
 13
0.0
 23
0.0
 33
0.0
 16
1.0
 26
0.0
 36
0.0
 17
0.0
 27
1.0
 37
0.0
 76
     0
330
1B
331
3D9
  0
LAYOUT
  5
278
102
{ACAD_REACTORS
330
1A
102
}
330
1A
100
AcDbPlotSettings
  1

  2
none_device
  4
ISO_A4_(210.00_x_297.00_MM)
  6

 40
7.5
 41
20.0
 42
7.5
 43
20.0
 44
210.0
 45
297.0
 46
0.0
 47
0.0
 48
0.0
 49
0.0
140
0.0
141
0.0
142
1.0
143
2.0512820513
 70
   688
 72
     1
 73
     1
 74
     1
  7

 75
     0
147
0.4875
148
234.2
149
0.0
100
AcDbLayout
  1
_Isometric
 70
     1
 71
     4
 10
0.0
 20
0.0
 11
0.0
 21
0.0
 12
0.0
 22
0.0
 32
0.0
 14
0.0
 24
0.0
 34
0.0
 15
0.0
 25
0.0
 35
0.0
146
0.0
 13
0.0
 23
0.0
 33
0.0
 16
1.0
 26
0.0
 36
0.0
 17
0.0
 27
1.0
 37
0.0
 76
     0
330
277
331
3DF
  0
LAYOUT
  5
26
102
{ACAD_REACTORS
330
1A
102
}
330
1A
100
AcDbPlotSettings
  1

  2
none_device
  4
ISO_A4_(210.00_x_297.00_MM)
  6

 40
7.5
 41
20.0
 42
7.5
 43
20.0
 44
210.0
 45
297.0
 46
0.0
 47
0.0
 48
0.0
 49
0.0
140
0.0
141
0.0
142
1.0
143
2.0512820513
 70
   688
 72
     1
 73
     1
 74
     1
  7

 75
     0
147
0.4875
148
234.2
149
0.0
100
AcDbLayout
  1
_Left
 70
     1
 71
     2
 10
0.0
 20
0.0
 11
0.0
 21
0.0
 12
0.0
 22
0.0
 32
0.0
 14
0.0
 24
0.0
 34
0.0
 15
0.0
 25
0.0
 35
0.0
146
0.0
 13
0.0
 23
0.0
 33
0.0
 16
1.0
 26
0.0
 36
0.0
 17
0.0
 27
1.0
 37
0.0
 76
     0
330
23
331
3DB
  0
LAYOUT
  5
18D
102
{ACAD_REACTORS
330
1A
102
}
330
1A
100
AcDbPlotSettings
  1

  2
none_device
  4
ISO_A4_(210.00_x_297.00_MM)
  6

 40
7.5
 41
20.0
 42
7.5
 43
20.0
 44
210.0
 45
297.0
 46
0.0
 47
0.0
 48
0.0
 49
0.0
140
0.0
141
0.0
142
1.0
143
2.0512820513
 70
   688
 72
     1
 73
     1
 74
     1
  7

 75
     0
147
0.4875
148
234.2
149
0.0
100
AcDbLayout
  1
_Top
 70
     1
 71
     3
 10
0.0
 20
0.0
 11
0.0
 21
0.0
 12
0.0
 22
0.0
 32
0.0
 14
0.0
 24
0.0
 34
0.0
 15
0.0
 25
0.0
 35
0.0
146
0.0
 13
0.0
 23
0.0
 33
0.0
 16
1.0
 26
0.0
 36
0.0
 17
0.0
 27
1.0
 37
0.0
 76
     0
330
18C
331
3DD
  0
LAYOUT
  5
22
102
{ACAD_REACTORS
330
1A
102
}
330
1A
100
AcDbPlotSettings
  1

  2
none_device
  4
ANSI_A_(11.00_x_8.50_Inches)
  6

 40
6.35
 41
19.05
 42
6.35000508
 43
19.05000254
 44
279.4
 45
215.9
 46
133.34999746
 47
-17.97050127
 48
0.0
 49
0.0
140
0.0
141
0.0
142
0.0210375
143
1.0
 70
  1696
 72
     0
 73
     0
 74
     0
  7

 75
     0
147
0.0179189148
148
-1300.4909072572
149
0.0
100
AcDbLayout
  1
Model
 70
     1
 71
     0
 10
0.0
 20
0.0
 11
420.0
 21
297.0
 12
0.0
 22
0.0
 32
0.0
 14
-234.2
 24
0.0
 34
0.0
 15
234.2
 25
400.0
 35
0.0
146
0.0
 13
0.0
 23
0.0
 33
0.0
 16
1.0
 26
0.0
 36
0.0
 17
0.0
 27
1.0
 37
0.0
 76
     0
330
1F
331
29
  0
MLINESTYLE
  5
18
102
{ACAD_REACTORS
330
17
102
}
330
17
100
AcDbMlineStyle
  2
Standard
 70
     0
  3

 62
   256
 51
90.0
 52
90.0
 71
     2
 49
0.5
 62
   256
  6
BYLAYER
 49
-0.5
 62
   256
  6
BYLAYER
  0
ACDBPLACEHOLDER
  5
F
102
{ACAD_REACTORS
330
E
102
}
330
E
  0
SCALE
  5
48
102
{ACAD_REACTORS
330
47
102
}
330
47
100
AcDbScale
 70
     0
300
1:1
140
1.0
141
1.0
290
     1
  0
SCALE
  5
49
102
{ACAD_REACTORS
330
47
102
}
330
47
100
AcDbScale
 70
     0
300
1:2
140
1.0
141
2.0
290
     0
  0
SCALE
  5
4A
102
{ACAD_REACTORS
330
47
102
}
330
47
100
AcDbScale
 70
     0
300
1:4
140
1.0
141
4.0
290
     0
  0
SCALE
  5
4B
102
{ACAD_REACTORS
330
47
102
}
330
47
100
AcDbScale
 70
     0
300
1:5
140
1.0
141
5.0
290
     0
  0
SCALE
  5
4C
102
{ACAD_REACTORS
330
47
102
}
330
47
100
AcDbScale
 70
     0
300
1:8
140
1.0
141
8.0
290
     0
  0
SCALE
  5
4D
102
{ACAD_REACTORS
330
47
102
}
330
47
100
AcDbScale
 70
     0
300
1:10
140
1.0
141
10.0
290
     0
  0
SCALE
  5
4E
102
{ACAD_REACTORS
330
47
102
}
330
47
100
AcDbScale
 70
     0
300
1:16
140
1.0
141
16.0
290
     0
  0
SCALE
  5
4F
102
{ACAD_REACTORS
330
47
102
}
330
47
100
AcDbScale
 70
     0
300
1:20
140
1.0
141
20.0
290
     0
  0
SCALE
  5
50
102
{ACAD_REACTORS
330
47
102
}
330
47
100
AcDbScale
 70
     0
300
1:30
140
1.0
141
30.0
290
     0
  0
SCALE
  5
51
102
{ACAD_REACTORS
330
47
102
}
330
47
100
AcDbScale
 70
     0
300
1:40
140
1.0
141
40.0
290
     0
  0
SCALE
  5
52
102
{ACAD_REACTORS
330
47
102
}
330
47
100
AcDbScale
 70
     0
300
1:50
140
1.0
141
50.0
290
     0
  0
SCALE
  5
53
102
{ACAD_REACTORS
330
47
102
}
330
47
100
AcDbScale
 70
     0
300
1:100
140
1.0
141
100.0
290
     0
  0
SCALE
  5
54
102
{ACAD_REACTORS
330
47
102
}
330
47
100
AcDbScale
 70
     0
300
2:1
140
2.0
141
1.0
290
     0
  0
SCALE
  5
55
102
{ACAD_REACTORS
330
47
102
}
330
47
100
AcDbScale
 70
     0
300
4:1
140
4.0
141
1.0
290
     0
  0
SCALE
  5
56
102
{ACAD_REACTORS
330
47
102
}
330
47
100
AcDbScale
 70
     0
300
8:1
140
8.0
141
1.0
290
     0
  0
SCALE
  5
57
102
{ACAD_REACTORS
330
47
102
}
330
47
100
AcDbScale
 70
     0
300
10:1
140
10.0
141
1.0
290
     0
  0
SCALE
  5
58
102
{ACAD_REACTORS
330
47
102
}
330
47
100
AcDbScale
 70
     0
300
100:1
140
100.0
141
1.0
290
     0
  0
SCALE
  5
59
102
{ACAD_REACTORS
330
47
102
}
330
47
100
AcDbScale
 70
     0
300
1/128" = 1'-0"
140
0.0078125
141
12.0
290
     0
  0
SCALE
  5
5A
102
{ACAD_REACTORS
330
47
102
}
330
47
100
AcDbScale
 70
     0
300
1/64" = 1'-0"
140
0.015625
141
12.0
290
     0
  0
SCALE
  5
5B
102
{ACAD_REACTORS
330
47
102
}
330
47
100
AcDbScale
 70
     0
300
1/32" = 1'-0"
140
0.03125
141
12.0
290
     0
  0
SCALE
  5
5C
102
{ACAD_REACTORS
330
47
102
}
330
47
100
AcDbScale
 70
     0
300
1/16" = 1'-0"
140
0.0625
141
12.0
290
     0
  0
SCALE
  5
5D
102
{ACAD_REACTORS
330
47
102
}
330
47
100
AcDbScale
 70
     0
300
3/32" = 1'-0"
140
0.09375
141
12.0
290
     0
  0
SCALE
  5
5E
102
{ACAD_REACTORS
330
47
102
}
330
47
100
AcDbScale
 70
     0
300
1/8" = 1'-0"
140
0.125
141
12.0
290
     0
  0
SCALE
  5
5F
102
{ACAD_REACTORS
330
47
102
}
330
47
100
AcDbScale
 70
     0
300
3/16" = 1'-0"
140
0.1875
141
12.0
290
     0
  0
SCALE
  5
60
102
{ACAD_REACTORS
330
47
102
}
330
47
100
AcDbScale
 70
     0
300
1/4" = 1'-0"
140
0.25
141
12.0
290
     0
  0
SCALE
  5
61
102
{ACAD_REACTORS
330
47
102
}
330
47
100
AcDbScale
 70
     0
300
3/8" = 1'-0"
140
0.375
141
12.0
290
     0
  0
SCALE
  5
62
102
{ACAD_REACTORS
330
47
102
}
330
47
100
AcDbScale
 70
     0
300
1/2" = 1'-0"
140
0.5
141
12.0
290
     0
  0
SCALE
  5
63
102
{ACAD_REACTORS
330
47
102
}
330
47
100
AcDbScale
 70
     0
300
3/4" = 1'-0"
140
0.75
141
12.0
290
     0
  0
SCALE
  5
64
102
{ACAD_REACTORS
330
47
102
}
330
47
100
AcDbScale
 70
     0
300
1" = 1'-0"
140
1.0
141
12.0
290
     0
  0
SCALE
  5
65
102
{ACAD_REACTORS
330
47
102
}
330
47
100
AcDbScale
 70
     0
300
1-1/2" = 1'-0"
140
1.5
141
12.0
290
     0
  0
SCALE
  5
66
102
{ACAD_REACTORS
330
47
102
}
330
47
100
AcDbScale
 70
     0
300
3" = 1'-0"
140
3.0
141
12.0
290
     0
  0
SCALE
  5
67
102
{ACAD_REACTORS
330
47
102
}
330
47
100
AcDbScale
 70
     0
300
6" = 1'-0"
140
6.0
141
12.0
290
     0
  0
SCALE
  5
68
102
{ACAD_REACTORS
330
47
102
}
330
47
100
AcDbScale
 70
     0
300
1'-0" = 1'-0"
140
12.0
141
12.0
290
     0
  0
ENDSEC
  0
EOF
